False Alliance - Secret State Of Mind Chords & Tabs

 

Secret State Of Mind Chords & Tabs

False Alliance Chords & Tabs

Version: 1 Type: Bass Tab 0 ratings
1 star 2 stars 3 stars 4 stars 5 stars
comments

Secret State Of Mind Bass Tab

Song: secret state of mind
Band: False Alliance
Tabbed by: Jax Beaudelaire

Intro:
G--------------------
D--------------------	x4
A-7x7x7x7-3-3-3-2-2--
E--------------------

Verse
G----------------------------------------------------
D----------------------------------------------------		x4
A 7-7-7-7-7-7-3-3-----------------------3-3-3-5-5-5--
E-----------------3-3-3-5-5-5-5-5-5-5-5--------------

Chorus
G------------------
D------------------
A-0-7-0-7-0-7-0-7--
E------------------

Intro:
G--------------------
D--------------------	x4
A-7x7x7x7-3-3-3-2-2--
E--------------------
[ Tab from: http://www.guitartabs.cc/tabs/f/false_alliance/secret_state_of_mind_btab.html ]
Verse
G----------------------------------------------------
D----------------------------------------------------		x4
A 7-7-7-7-7-7-3-3-----------------------3-3-3-5-5-5--
E-----------------3-3-3-5-5-5-5-5-5-5-5--------------

Chorus
G------------------
D------------------
A-0-7-0-7-0-7-0-7--
E------------------

Intro:
G--------------------
D--------------------	x4
A-7x7x7x7-3-3-3-2-2--
E--------------------

Bridge
G----------
D----------
A-7x3x2x0--
E----------

Verse
G----------------------------------------------------
D----------------------------------------------------		x4
A 7-7-7-7-7-7-3-3-----------------------3-3-3-5-5-5--
E-----------------3-3-3-5-5-5-5-5-5-5-5--------------

Chorus
G------------------
D------------------
A-0-7-0-7-0-7-0-7--
E------------------

Intro:
G--------------------
D--------------------	x8
A-7x7x7x7-3-3-3-2-2--
E--------------------

Comments