Falling Up - Your Mom Chords & Tabs

 

Your Mom Chords & Tabs

Falling Up Chords & Tabs

Version: 1 Type: Tab 0 ratings
1 star 2 stars 3 stars 4 stars 5 stars
comments

Your Mom Tab

----------------------------------------------------
----------------------------------------------------
----------------------------------------------------
--------06---------------------06------------------- x5
----7777---7--------06----7777-----7----------------
--------------7777-----7----------------------------



-----------------------------------------------------
-----------------------------------------------------
---------------6-6-6-6-6-6---------------------------
--6-6-6-6-6-6--6-6-6-6-6-6--6-6-6-6-6-6--5-5-5-5-5-5- x3
--6-6-6-6-6-6--4-4-4-4-4-4--6-6-6-6-6-6--5-5-5-5-5-5-
--4-4-4-4-4-4---------------8-8-8-8-8-8--7-7-7-7-7-7-



verse:
[ Tab from: http://www.guitartabs.cc/tabs/f/falling_up/your_mom_tab.html ]
----------------------------------------------------------------
----------------------------------------------------------------
--------------3-3-3-3-3-3--------------------------------------- x3
-3-3-3-3-3-3--5-5-5-5-5-5--2-2-2-2-2-2--2-2-2-2-2-2-------------
-5-5-5-5-5-5--5-5-5-5-5-5--4-4-4-4-4-4--2-2-2-2-2-2-------------
-5-5-5-5-5-5---------------4-4-4-4-4-4--------------------------


Chorus:
----------------------------------------------------------------
----------------------------------------------------------------
--3-3-3-3-3-3--4-4-4-4-4-4--2-2-2-2-2-2--2-2-2-2-2-2------------
--5-5-5-5-5-5--6-6-6-6-6-6--2-2-2-2-2-2--4-4-4-4-4-4------------  x4
--5-5-5-5-5-5--6-6-6-6-6-6---------------4-4-4-4-4-4------------
----------------------------------------------------------------


Interlude:

----------------------------------------------------------------
------------------------------------------------99--------------
----8-5-8--8-10-8--6-5-6-------5-8-8-10-8-6-5-6----------------- x1
--6----------------------6-6-8----------------------------------
----------------------------------------------------------------
----------------------------------------------------------------


Now repeat throughout the song. Have fun!


By: Falling up
Comments