Falling Up - Symmetry Chords & Tabs

 

Symmetry Chords & Tabs

Falling Up Chords & Tabs

Version: 1 Type: Tab 0 ratings
1 star 2 stars 3 stars 4 stars 5 stars
comments

Symmetry Tab

Song: Symmetry
Artist: Falling up
Words and Music by: Falling up

ok, this is my first tab so tell me what you think. I have never been to one of 
Falling up concert but this is my best from listening to the cd
BE NICE TO EACH OTHER WHILE MAKING CORRECTIONS
(We're all brothers, of different color and another mother) 

Intro

E------------------------------------------------------------------
B------------------------------------------------------------------
G------------------------------------------------------------------
D---0-----7---0--9h10s12--0-7h9---0--7h9--2------------------------
A---0-----7---0--9h10s12--0-7h9---0--7h9--2------------------------
D---0-----7---0--9h10s12--0-7h9---0--7h9--2------------------------ 

E------------------------------------------------------------------
B------------------------------------------------------------------
G---------------------------------------------------5--4-----------
D---0-----7---0--9h10s12--0-7h9---0--7h9--2------------------------
A---0-----7---0--9h10s12--0-7h9---0--7h9--2------------------------
D---0-----7---0--9h10s12--0-7h9---0--7h9--2------------------------

B------------------------------------------------------------------
G------------------------------------------------------------------
D---0-----7---0--9h10s12--0-7h9---0--7h9--2------------------------
A---0-----7---0--9h10s12--0-7h9---0--7h9--2------------------------
D---0-----7---0--9h10s12--0-7h9---0--7h9--2------------------------ 

B------------------------------------------------------------------
G------------------------------------------------------------------
D---0-----7---0--9h10s12--0-7h9---0--7h9--0------------------------
A---0-----7---0--9h10s12--0-7h9---0--7h9--0------------------------
D---0-----7---0--9h10s12--0-7h9---0--7h9--0------------------------

Verse x2

E----------xxxxxxxxxx--------------------------------------------
B----------5555555555--------------------------------------------
G----------xxxxxxxxxx--------------------------------------------
D---222----xxxxxxxxxx-----10--10-10------------------------------
A---222----xxxxxxxxxx-----7---7--7-------------------------------
D---222----xxxxxxxxxx-----7---7--7-------------------------------

E----------xxxxxxxxxx--------------------------------------------
B----------5555555555--------------------------------------------
G----------xxxxxxxxxx--------------------------------------------
D---222----xxxxxxxxxx-----10--10-10-------9s10s9s10s9s10s9-------
A---222----xxxxxxxxxx-----7---7--7-------------------------------
D---222----xxxxxxxxxx-----7---7--7------------------------------- 

Pre-chorus

E----------------------------------------------------------------
B----------------------------------------------------------------
G----------------------------------------------------------------
D-----0------2------0------2-------------------------------------
A-----0------2------0------2-------------------------------------
D-----0------2------0------2-------------------------------------

Chorus x2

E----------------------------------------------------------------
B----------------------------------------------------------------
G----------------------------------------------------------------
D---10-10-10--3333--------10-10-10---2-2-4s2---------------------
A----7--7-7---2222---------7--7-7----0-0-0-----------------------
D----7--7-7---2222---------7--7-7----0-0-0-----------------------

Verse x2

E----------xxxxxxxxxx--------------------------------------------
B----------5555555555--------------------------------------------
G----------xxxxxxxxxx--------------------------------------------
D---222----xxxxxxxxxx-----10--10-10-------9s10s9s10s9s10s9-------
A---222----xxxxxxxxxx-----7---7--7-------------------------------
D---222----xxxxxxxxxx-----7---7--7-------------------------------
[ Tab from: http://www.guitartabs.cc/tabs/f/falling_up/symmetry_tab.html ]
E----------xxxxxxxxxx--------------------------------------------
B----------5555555555--------------------------------------------
G----------xxxxxxxxxx--------------------------------------------
D---222----xxxxxxxxxx-----10--10-10------------------------------
A---222----xxxxxxxxxx-----7---7--7-------------------------------
D---222----xxxxxxxxxx-----7---7--7-------------------------------

Pre-chorus

E----------------------------------------------------------------
B----------------------------------------------------------------
G----------------------------------------------------------------
D-----0------2------0------2-------------------------------------
A-----0------2------0------2-------------------------------------
D-----0------2------0------2-------------------------------------

Chorus x2

E----------------------------------------------------------------
B----------------------------------------------------------------
G----------------------------------------------------------------
D---10-10-10--3333--------10-10-10---2-2-4s2---------------------
A----7--7-7---2222---------7--7-7----0-0-0-----------------------
D----7--7-7---2222---------7--7-7----0-0-0-----------------------


Bridge x2

E----------------------------------------------------------------
B------8--8--8-8----------12-12-12-12----8--8--8--8-------------
G------11-11-11-11--------15-15-15-15----11-11-11-11--------------
D----------------------------------------------------------------
A----------------------------------------------------------------
D----------------------------------------------------------------

E----------------------------------------------------------------
B----7--7--7--7--------11-11-11-11-------------------------------
G----10-10-10-10--------14-14-14-14------------------------------
D----------------------------------------------------------------
A----------------------------------------------------------------
E----------------------------------------------------------------


Pre-chorus

E----------------------------------------------------------------
B----------------------------------------------------------------
G----------------------------------------------------------------
D-----0------2------0------2-------------------------------------
A-----0------2------0------2-------------------------------------
D-----0------2------0------2-------------------------------------

Chorus 

E----------------------------------------------------------------
B----------------------------------------------------------------
G----------------------------------------------------------------
D---10-10-10--3333--------10-10-10---2-2-4s2---------------------
A----7--7-7---2222---------7--7-7----0-0-0-----------------------
D----7--7-7---2222---------7--7-7----0-0-0-----------------------

E----------------------------------------------------------------
B----------------------------------------------------------------
G----------------------------------------------------------------
D---10-10-10--3333--------10-10-10---2--22--------------------
A----7--7-7---2222---------7--7-7----0--22-----------------------
D----7--7-7---2222---------7--7-7----0--22-----------------------

Outro x2

E----------------------------------------------------------------
B----------------------------------------------------------------
G----------------------------------------------------------------
D---2222--10-10-10-10-----2222--10-10-9-9------------------------
A---2222--10-10-10-10-----2222--10-10-9-9------------------------
D---2222--10-10-10-10-----2222--10-10-9-9------------------------

E----------------------------------------------------------------
B----------------------------------------------------------------
G----------------------------------------------------------------
D---0000----9999-----0000----9999--------------------------------
A---0000----9999-----0000----9999--------------------------------
D---0000----9999-----0000----9999--------------------------------








h - hammer on 
      p - pull off 
      b - bend string up
      r - release bend
      / - slide up
      \ - slide down
      v - vibrato 
      t - tap (with strumming hand)
      x - muted, struck string
      - harmonic

T\B-Rock_God1023
Comments