Falling Up - Searchlights Chords & Tabs

 

Searchlights Chords & Tabs

Falling Up Chords & Tabs

Version: 1 Type: Tab 0 ratings
1 star 2 stars 3 stars 4 stars 5 stars
comments

Searchlights Tab

   
Falling Up-Searchlights
From:Dawn Escapes
Drop D Tuning D-A-D-G-B-E

Intro
Keyboard then
Gtr. 1
G[-12-12/12/11/12-12/11--]
D[---------------------9-]x8
Then

Gtr. 2
G[-9s11-11-x9s11-11-x12/12/12/12-]
D[-9s11-11-x9s11-11-x-x-x--x--x--]
A[-7s-9--9-x7s-9--9-x10/10/10/10-]x3
D[-7s-9--9-x7s-9--9-x------------]


G[-9s11-11-x9s11-x-11-9h11-----]
D[-9s11-11-x9s11-x---------7/7-]
A[-7s-9--9-x7s-9-x-------------]
D[-7s-9--9-x7s-9-x-------------]


Then Both guitars kick in

G[-9s11-11-x9s11-11-x12/12/12/12-]
D[-9s11-11-x9s11-11-x-x-x--x--x--]
A[-7s-9--9-x7s-9--9-x10/10/10/10-]x3
D[-7s-9--9-x7s-9--9-x------------]

G[-9s11-11-x9s11-x-11-9h11-----]
D[-9s11-11-x9s11-x---------7/7-]
A[-7s-9--9-x7s-9-x-------------]
D[-7s-9--9-x7s-9-x-------------]


Then this again...,

G[-9s11-11-x9s11-11-x12/12/12/12-]
D[-9s11-11-x9s11-11-x-x-x--x--x--]
A[-7s-9--9-x7s-9--9-x10/10/10/10-]x3
D[-7s-9--9-x7s-9--9-x------------]


G[-9s11-11-x9s11-x-11-9h11-----]
D[-9s11-11-x9s11-x---------7/7-]
A[-7s-9--9-x7s-9-x-------------]
D[-7s-9--9-x7s-9-x-------------]

Verse 1
Keyboard then


D[-2/2/2-2/2/2--2-2-2/2/2-]
A[-2/2/2-2/2/2--2-2-2/2/2-]x2
D[-2/2/2-2/2/2--2-2-2/2/2-]


Keyboard again
and then

D[-2/2/2-2/2/2--2-2-2/2/2-]
A[-2/2/2-2/2/2--2-2-2/2/2-]x2
D[-2/2/2-2/2/2--2-2-2/2/2-]

[ Tab from: http://www.guitartabs.cc/tabs/f/falling_up/searchlights_tab.html ]
Pre-Chorus
G[-7/7/7/7/7/7/7s9/9/9/9/9/9/9-]
D[-7/7/7/7/7/7/7s9/9/9/9/9/9/9-]
A[-5/5/5/5/5/5/5s7/7/7/7/7/7/7-]
D[-5/5/5/5/5/5/5s7/7/7/7/7/7/7-]

Chorus
Gtr. 2
G[-x11-11-----x7-7--x4-4-]
D[-x11-11-----x7-7--x4-4-]
A[-x-9--9-----x5-5--x2-2-]x4
D[-x-9--9-----x5-5--x2-2-]


Gtr. 1
(This is played in between the 9-9-11-11 and the 5-5-7-7 of Gtr. 2)
G[-6/6/6/6------------]
D[--------4h7-7/7/5/4-]x4

Verse 2
(Same as Verse 1)

Pre-Chorus

Chorus


Bridge
Both guitars
D[-5-5xxxxxxxxxx7-7xxxxxxxxxx2-2xxxxxxxxxx0-2-4-7-9-]
A[-5-5xxxxxxxxxx7-7xxxxxxxxxx2-2xxxxxxxxxx0-2-5-7-9-]x2
D[-5-5xxxxxxxxxx7-7xxxxxxxxxx2-2xxxxxxxxxx0-2-4-7-9-]


Then
D[-7/7/7/7/7/7/7/7/9/9/9/9/9/9/9/9/2/2/2/2/2/2/2/2/0-2-4-7-9-]
A[-5/5/5/5/5/5/5/5/7/7/7/7/7/7/7/7/2/2/2/2/2/2/2/2/0-2-5-7-9-]x2
D[-5/5/5/5/5/5/5/5/7/7/7/7/7/7/7/7/2/2/2/2/2/2/2/2/0-2-4-7-9-]


Interlude
Gtr. 2
G[-9s11-11-x9s11-11-x12/12/12/12-]
D[-9s11-11-x9s11-11-x-x-x--x--x--]
A[-7s-9--9-x7s-9--9-x10/10/10/10-]x2
D[-7s-9--9-x7s-9--9-x------------]


Then both guitars
G[-9s11-11-x9s11-11-x12/12/12/12-]
D[-9s11-11-x9s11-11-x-x-x--x--x--]
A[-7s-9--9-x7s-9--9-x10/10/10/10-]x3
D[-7s-9--9-x7s-9--9-x------------]


  -both guitars--- Gtr. 2------ 
G[-9s11-11-x9s11-x-11-9h11-----]
D[-9s11-11-x9s11-x---------7/7-]
A[-7s-9--9-x7s-9-x-------------]
D[-7s-9--9-x7s-9-x-------------]

Chorus

T\B-Rock_God1023
Comments