Falling Up - New Hope Generation Chords & Tabs

 

New Hope Generation Chords & Tabs

Falling Up Chords & Tabs

Version: 1 Type: Tab 0 ratings
1 star 2 stars 3 stars 4 stars 5 stars
comments

New Hope Generation Tab

the other tab for this song was incomplete and wrong, so i tabbed it myself.

Drop D tuning

intro
D-5-5--5-5--5-5--7-7-7-7---5-5--5-5--5-5--3-3-3-3
A-5-5--5-5--5-5--7-7-7-7---5-5--5-5--5-5--3-3-3-3   X2
D-5-5--5-5--5-5--7-7-7-7---5-5--5-5--5-5--3-3-3-3   

verse
D-7--3--5
A-7--3--5   X2
D-7--3--5
[ Tab from: http://www.guitartabs.cc/tabs/f/falling_up/new_hope_generation_tab.html ]
Prechorus
D------------------------------------------
A----7---7---7---7-----15-----15--15-----15
D-7-7-7-7-7-7-7-7-15-15--15-15--15--15-15
Palm mute the 6th string(the string in dropped d tuning)

chorus
D-7--15--3--5
A-7--15--3--5  X2
D-7--15--3--5

Bridge
-7-7--7-7--7-7--7-7
-7-7--7-7--7-7--7-7
-7-7--7-7--7-7--7-7
the bass plays in between the guitar
then
-7---10---15---14
-7---10---15---14   X2
-7---10---15---14
then
-5--9--7----5--9--15-15(17-17-17)
-5--9--7----5--9--15             X4
-5--9--7----5--9--15
play the 17s in paranthesis the 2nd and fourth time

Good luck and God bless.
2 corinthians 8:9

T\B-Rock_God1023
Comments