Falling Up - Meridians Chords & Tabs

 

Meridians Chords & Tabs

Falling Up Chords & Tabs

Version: 1 Type: Tab 0 ratings
1 star 2 stars 3 stars 4 stars 5 stars
comments

Meridians Tab

   
Falling Up-Meridians
From:Dawn Escapes
Drop D Tuning D-A-D-G-B-E

h=hammer on
p=pull off
s=slide

Intro
D[-7h9p7/12-11--]
A[-7h9p7/-9--9--]x4
D[-7h9p7/-9--9--]
Then
Gtr. 2
G[-11----9-----7----7-]
D[--x----x-----x----x-]x2
A[--9----7-----5----5-]

Verse 1
Gtr. 2
G[-11----9-----7----7-]
D[--x----x-----x----x-]x4
A[--9----7-----5----5-]
Gtr. 1
B[----7------7---------------14----14-----]
G[--7--7---9--9-------14-------14----14---]
D[-9-9----9-9-----12----12-------------12-]x4
A[--------------12--12-----12----12-------]

Pre-Chorus
Gtr. 1
G[-11--------]
D[--x--------]
A[--9--------]
Gtr. 2
G[-9--------]
D[-9--------]
A[-9--------]
D[-9--------]

Chorus
D[-9----5----12----11----]
A[-5----2-----9-----7----]x2
D[-5----2-----9-----7----]
[ Tab from: http://www.guitartabs.cc/tabs/f/falling_up/meridians_tab.html ]
Post-Chorus
Gtr. 1
B[----7------7---------------14----14-----]
G[--7--7---9--9-------14-------14----14---]
D[-9-9----9-9-----12----12-------------12-]x2
A[--------------12--12-----12----12-------]

Verse 2
(Same as Verse 1)

Pre-Chorus

Chorus

Bridge
Gtr. 2
D[-5----7----5--7--9--12--2--]
A[-5----7----5--7--9--12--2--]
D[-5----7----5--7--9--12--2--]
Gtr. 1
B[----7------7---------------14----14-----]
G[--7--7---9--9-------14-------14----14---]
D[-9-9----9-9-----12----12-------------12-]x2
A[--------------12--12-----12----12-------]
Then
Both guitars
G[-------7-----------7-----------9-----------9---]
D[-2s5---7-5---2s5---7-5---5s7---9-7---5s7---9-7-]
A[-2s5-5---5---2s5-5---5---5s7-7---7---5s7-7---7-]x2
D[-2s5-----5---2s5-----5---5s7-----7---5s7-----7-]

Chorus

Ending
D[-5----7----5--7--9--12--]
A[-5----7----5--7--9--12--]
D[-5----7----5--7--9--12--]

D[-5----7----2----0-----]
A[-5----7----2----0-----]
D[-5----7----2----0-----]

D[-5----7----5--7--9--12--]
A[-5----7----5--7--9--12--]
D[-5----7----5--7--9--12--]

D[-5----7----2----0-]
A[-5----7----2----0-]
D[-5----7----2----0-]

T\B-Rock_God1023
Comments