Falling Up - Marathons Chords & Tabs

 

Marathons Chords & Tabs

Falling Up Chords & Tabs

Version: 1 Type: Tab 0 ratings
1 star 2 stars 3 stars 4 stars 5 stars
comments

Marathons Tab

   
Falling Up-Marathons
From:Dawn Escapes
Drop D Tuning D-A-D-G-B-E

h=hammer on
p=pull off
s=slide
B=bend
rb=return bend

Intro
Keyboard
Then
G[--7/7-------5/5----------]
D[-0---7/7-0/0---3/3-7h8/8-]
A[-0-------0/0-------7h8/8-]x4
D[-0-------0/0-------7h8/8-]

Verse 1
Gtr. 1
G[-7/7----5/5-----7/7--7/7----5/5------------]
D[----7/7----3/3----------7/7----3/3---------]
A[-----------------------------------5/5/0/0-]

G[-7/7----5/5-----7/7--7/7----5/5------------]
D[----7/7----3/3----------7/7----3/3--2h3p2--]
A[-----------------------------------------3-]

G[-7/7----5/5-----7/7--7/7----5/5------------]
D[----7/7----3/3----------7/7----3/3---------]
A[-----------------------------------5/5/0/0-]

G[-7/7----5/5-----7/7--7/7----5/5------------]
D[----7/7----3/3----------7/7----3/3--2h3p2--]
A[-----------------------------------------3-]

Pre-Chorus
Gtr. 2
G[-7/7-5/7--10/10-7/10--7/7-5/7--10/10/10/10------------]
D[-7/7-5/7--10/10-7/10--7/7-5/7--10/10/10/10-8s10-10-10-]
A[-5/5-3/5---8/-8-5/-8--5/5-3/5---8/-8/-8/-8-8s10-10-10-]
D[-5/5-3/5---8/-8-5/-8--5/5-3/5---8/-8/-8/-8-8s10-10-10-]

Chorus
Both Guitars
G[-------9p7------5x5--------9p7------5x5-]
D[-0-8h10---0/0/0-5x5--0-8h10---0/0/0-5x5-]
A[-0--------0/0/0-3x3--0--------0/0/0-3x3-]
D[-0--------0/0/0------0--------0/0/0-----]

G[-7/7/7/7/7/7/7/7/10/10/10/10/10/10/10/10-]
D[-7/7/7/7/7/7/7/7/10/10/10/10/10/10/10/10-]
A[-5/5/5/5/5/5/5/5/-8/-8/-8/-8/-8/-8/-8/-8-]
D[-5/5/5/5/5/5/5/5/-8/-8/-8/-8/-8/-8/-8/-8-]

G[-------9p7------5x5--------9p7------5x5-]
D[-0-8h10---0/0/0-5x5--0-8h10---0/0/0-5x5-]
A[-0--------0/0/0-3x3--0--------0/0/0-3x3-]
D[-0--------0/0/0------0--------0/0/0-----]

G[-7/7/7/7/7/7/7/7/10/10/10/10/10/10/10/10-]
D[-7/7/7/7/7/7/7/7/10/10/10/10/10/10/10/10-]
A[-5/5/5/5/5/5/5/5/-8/-8/-8/-8/-8/-8/-8/-8-]
D[-5/5/5/5/5/5/5/5/-8/-8/-8/-8/-8/-8/-8/-8-]

Verse 2
Gtr. 1
G[-7/7----5/5-----7/7--7/7----5/5------------]
D[----7/7----3/3----------7/7----3/3---------]
A[-----------------------------------5/5/0/0-]
[ Tab from: http://www.guitartabs.cc/tabs/f/falling_up/marathons_tab.html ]
G[-7/7----5/5----------7/7----5/5------------]
D[----7/7----3/3---5/5----7/7----3/3--2h3p2--]
A[-----------------------------------------3-]
Then
Gtr. 1
G[-7/7----5/5-----7/7--7/7----5/5------------]
D[----7/7----3/3----------7/7----3/3---------]
A[-----------------------------------5/5/0/0-]
Gtr. 2
B[---------------------5--5brb---------------]
G[----------------------5-----5-7/7----------]
Then
Gtr. 1
G[-7/7----5/5----------7/7----5/5------------]
D[----7/7----3/3---5/5----7/7----3/3--2h3p2--]
A[-----------------------------------------3-]
Then
Gtr. 1
G[-7/7----5/5-----7/7--7/7----5/5------------]
D[----7/7----3/3----------7/7----3/3---------]
A[-----------------------------------5/5/0/0-]
Gtr. 2
B[---------------------5--5brb---------------]
G[----------------------5-----5-7/7----------]
Then
Gtr. 1
G[-7/7----5/5----------7/7----5/5------------]
D[----7/7----3/3---5/5----7/7----3/3--2h3p2--]
A[-----------------------------------------3-]

Pre-Chorus

Chorus

Bridge
D[-12-0-5-7-12-0-10-12--12/12/10/10-12/12/12s10-10/10-]
A[--7-0-3-5--7-0--8-10---8/-8/-7/-7--8/-8/-8s-7--7/-7-]
D[--7-0-3-5--7-0--8-10---8/-8/-7/-7--8/-8/-8s-7--7/-7-]

D[12-0-5-7-12-0-10-12-]
A[-7-0-3-5--7-0--8-10-]
D[-7-0-3-5--7-0--8-10-]

D[-12/12/10/10-12/12/12/12-10/10-12/12/10/10-12/12/12/12s10-10/10-]
A[--8/-8/-7/-7--8/-8/-8/-8--7/-7--8/-8/-7/-7--8/-8/-8/-8s-7--7/-7-]
D[--8/-8/-7/-7--8/-8/-8/-8--7/-7--8/-8/-7/-7--8/-8/-8/-8s-7--7/-7-]
Then
G[-----------------------5------------------------]
D[-0----3----8----5--3/2-5--0----3----8-----5-5-5-]
A[-0----3----8----5--3/2-3--0----3----8-----5-5-5-]
D[-0----3----8----5--3/2----0----3----8-----5-5-5-]

Chorus

Ending
G[--7/7-------5/5----------]
D[-0---7/7-0/0---3/3-7h8/8-]
A[-0-------0/0-------7h8/8-]x4
D[-0-------0/0-------7h8/8-]
Then
Gtr. 1
G[--7/7-------5/5----------]
D[-0---7/7-0/0---3/3-7h8/8-]
A[-0-------0/0-------7h8/8-]
D[-0-------0/0-------7h8/8-]
Gtr. 2
B[-----------------5--5brb---------------]
G[------------------5-----5-7/7----------]
Then
Gtr. 1
G[--7/7-------5/5----------]
D[-0---7/7-0/0---3/3-7h8/8-]
A[-0-------0/0-------7h8/8-]
D[-0-------0/0-------7h8/8-]
Then
Gtr. 1
G[--7/7-------5/5----------]
D[-0---7/7-0/0---3/3-7h8/8-]
A[-0-------0/0-------7h8/8-]
D[-0-------0/0-------7h8/8-]
Gtr. 2
B[-----------------5--5brb---------------]
G[------------------5-----5-7/7----------]
Then
Gtr. 1
G[--7/7-------5/5----------]
D[-0---7/7-0/0---3/3-8/8/8-]
A[-0-------0/0-------8/8/8-]
D[-0-------0/0-------8/8/8-]


T\B-Rock_God1023
Comments