Falling Up - Fearless Chords & Tabs

 

Fearless Chords & Tabs

Falling Up Chords & Tabs

Version: 1 Type: Tab 0 ratings
1 star 2 stars 3 stars 4 stars 5 stars
comments

Fearless Tab

   
Falling Up-Fearless
From:Dawn Escapes
Drop C Tuning C-G-C-F-A-D

=harmonic
h=hammer on
s=slide

Intro
F[-9s11/11/11/11/11/11/11/11/11/11/11/11/11-]
C[-xs-x/-x/-x/-x/-x/-x/-x/-x/-x/-x/-x/-x/-x-]x2
G[-7s-9/-9/-9/-9/-9/-9/-9/-9/-9/-9/-9/-9/-9-]
Then
Gtr. 2
C[--]
G[--]x4
C[--]
Gtr. 1
G[--9--11--12--11--9--11--12--14--]
Then
Gtr. 2
C[-2h4/4/4/4-4/4-9/9/9-2/2/2--2h4/4/4/4-4/4-9/9/9-2/2/2-]
G[-2h4/4/4/4-4/4-9/9/9-2/2/2--2h4/4/4/4-4/4-9/9/9-2/2/2-]
C[-2h4/4/4/4-4/4-9/9/9-2/2/2--2h4/4/4/4-4/4-9/9/9-2/2/2-]
Then
Gtr. 2
C[-0----2----]
G[-0----2----]
C[-0----2----]
Gtr. 1
F[-11--13--14--13--11--13--14--16-]
C[--x---x---x---x---x---x---x---x-]
G[--9--11--12--11---9--11--12--14-]


Verse 1
Gtr. 2
C[-2h4/4/4/4-4/4-9/9/9-2/2/2--2h4/4/4/4-4/4-9/9/9-2/2/2-]
G[-2h4/4/4/4-4/4-9/9/9-2/2/2--2h4/4/4/4-4/4-9/9/9-2/2/2-]
C[-2h4/4/4/4-4/4-9/9/9-2/2/2--2h4/4/4/4-4/4-9/9/9-2/2/2-]
Then
Gtr. 2
C[-0----2----]
G[-0----2----]
C[-0----2----]
Gtr. 1
F[-11--13--14--13--11--13--14--16-]
C[--x---x---x---x---x---x---x---x-]
G[--9--11--12--11---9--11--12--14-]
Then
Gtr. 2
C[-2h4/4/4/4-4/4-9/9/9-2/2/2--2h4/4/4/4-4/4-9/9/9-2/2/2-]
G[-2h4/4/4/4-4/4-9/9/9-2/2/2--2h4/4/4/4-4/4-9/9/9-2/2/2-]
C[-2h4/4/4/4-4/4-9/9/9-2/2/2--2h4/4/4/4-4/4-9/9/9-2/2/2-]
Then
Gtr. 2
C[-0----2----]
G[-0----2----]
C[-0----2----]
Gtr. 1
F[-11--13--14--13--11--13--14--16-]
C[--x---x---x---x---x---x---x---x-]
G[--9--11--12--11---9--11--12--14-]

Pre-Chorus
Gtr. 2
C[-0----2----0----2-]
G[-0----2----0----2-]
C[-0----2----0----2-]
Gtr. 1
D[-9---10---9-----5-5--9---10---9-----5-5--5---4---5-----4-4-]
A[--7/7--7/7-7/7--7-7---7/7--7/7-7/7--7-7---3/3-3/3-3/3--3-3-]

A[-5s7/7-7---9----]
F[-7s9/9--9/9-9/9-]
C[-7s9/9----------]
G[-5s7/7----------]

Chorus
Both guitars
C[-9-11/11-9-11/11-9-11/11-9-11/11--13-14/14-13-14/14-13-14/14-13-14/14-]
G[-7--7/-7-7--7/-7-7--7/-7-7--7/-7--11-11/11-11-11/11-11-11/11-11-11/11-]
C[-7--7/-7-7--7/-7-7--7/-7-7--7/-7--11-11/11-11-11/11-11-11/11-11-11/11-]
[ Tab from: http://www.guitartabs.cc/tabs/f/falling_up/fearless_tab.html ]
C[-4-6/6-4-6/6-4-6/6-4-6/6--11-13/13-11-13/13-11-13/13-11-13/13-]
G[-2-2/2-2-2/2-2-2/2-2-2/2---9--9/-9--9--9/-9--9--9/-9--9--9/-9-]
C[-2-2/2-2-2/2-2-2/2-2-2/2---9--9/-9--9--9/-9--9--9/-9--9--9/-9-]

C[-6-7/7-6-7/7-6-7/7-6-7/7--9-11/11-9-11/11-9-11/11-9-11/11-]
G[-4-4/4-4-4/4-4-4/4-4-4/4--7--7/-7-7--7/-7-7--7/-7-7--7/-7-]
C[-4-4/4-4-4/4-4-4/4-4-4/4--7--7/-7-7--7/-7-7--7/-7-7--7/-7-]

C[-13-14/14-13-14/14-13-14/14-13-14/14--11-13/13-11-13/13-11-13/13-11-13/13-]
G[-11-11/11-11-11/11-11-11/11-11-11/11---9--9/-9--9--9/-9--9--9/-9--9--9/-9-]
C[-11-11/11-11-11/11-11-11/11-11-11/11---9--9/-9--9--9/-9--9--9/-9--9--9/-9-]

Verse 2
(Same as Verse 1)

Pre-Chorus

Chorus

Bridge
Gtr. 2
C[-0----2----4----2-]
G[-0----2----4----2-]x2
C[-0----2----4----2-]
Gtr. 1
A[-10----9----10----9-]
F[------11---------11-]x2

Chorus 2
C[-7----]
G[-7----]
C[-7----]
Then Piano for awhile then
C[-11-13/13-11-13/13-11-13/13-11-13/13-]
G[--9--9/-9--9--9/-9--9--9/-9--9--9/-9-]
C[--9--9/-9--9--9/-9--9--9/-9--9--9/-9-]

Chorus 3
C[-9-11/11-9-11/11-9-11/11-9-11/11--13-14/14-13-14/14-13-14/14-13-14/14-]
G[-7--7/-7-7--7/-7-7--7/-7-7--7/-7--11-11/11-11-11/11-11-11/11-11-11/11-]
C[-7--7/-7-7--7/-7-7--7/-7-7--7/-7--11-11/11-11-11/11-11-11/11-11-11/11-]

C[-4-6/6-4-6/6-4-6/6-4-6/6--11-13/13-11-13/13-11-13/13-11-13/13-]
G[-2-2/2-2-2/2-2-2/2-2-2/2---9--9/-9--9--9/-9--9--9/-9--9--9/-9-]
C[-2-2/2-2-2/2-2-2/2-2-2/2---9--9/-9--9--9/-9--9--9/-9--9--9/-9-]

C[-6-7/7-6-7/7-6-7/7-6-7/7--9-11/11-9-11/11-9-11/11-9-11/11-]
G[-4-4/4-4-4/4-4-4/4-4-4/4--7--7/-7-7--7/-7-7--7/-7-7--7/-7-]
C[-4-4/4-4-4/4-4-4/4-4-4/4--7--7/-7-7--7/-7-7--7/-7-7--7/-7-]

C[-13-14/14-13-14/14-13-14/14-13-14/14--11-13/13-11-13/13-11-13/13-11-13/13-]
G[-11-11/11-11-11/11-11-11/11-11-11/11---9--9/-9--9--9/-9--9--9/-9--9--9/-9-]
C[-11-11/11-11-11/11-11-11/11-11-11/11---9--9/-9--9--9/-9--9--9/-9--9--9/-9-]

C[-6-7/7-6-7/7-6-7/7-6-7/7--9-11/11-9-11/11-9-11/11-9-11/11-]
G[-4-4/4-4-4/4-4-4/4-4-4/4--7--7/-7-7--7/-7-7--7/-7-7--7/-7-]
C[-4-4/4-4-4/4-4-4/4-4-4/4--7--7/-7-7--7/-7-7--7/-7-7--7/-7-]

C[-13-14/14-13-14/14-13-14/14-13-14/14--9--9---0-]
G[-11-11/11-11-11/11-11-11/11-11-11/11--9--9---0-]
C[-11-11/11-11-11/11-11-11/11-11-11/11--9--9---0-]

T\B-Rock_god1023
Comments