Falling Up - Divinity Chords & Tabs

 

Divinity Chords & Tabs

Falling Up Chords & Tabs

Version: 1 Type: Tab 0 ratings
1 star 2 stars 3 stars 4 stars 5 stars
comments

Divinity Tab

 
song: Divinity
artist: falling up
tuning: DADGBE

good luck, and have fun!

intro:
[--------------------------]
[--2--4--7----2--4--7-5-3--] x2
[--2--4--7----2--4--7-5-3--]
[--2--4--7----2--4--7-5-3--]

verse 1:
[-------------------12--------------------------12---------11---------12-----]
[--12-12-11-9----12------12-11h12p11---------12----12---12----12---12----12--]x2
[------------------------------------12--------------------------------------]
[----------------------------------------------------------------------------]
[ Tab from: http://www.guitartabs.cc/tabs/f/falling_up/divinity_tab.html ]
prechorus:(same as intro but x1)
chorus:
[---------------------------------------------]
[--12-12-x-11-11-x-9-9-x-7-7-----4-----5---7--] x4
[--12-12-x-11-11-x-9-9-x-7-7-----4-----5---7--]
[--12-12-x-11-11-x-9-9-x-7-7-----4-----5---7--]

verse 2: (same as verse 1)
chorus
right after chorus same as intro then bridge

ok, i couldnt figure out the bridge.  youll have to try that one out and post 
it here if you do figure it out.  right after the bridge is:
[--9-9--2-2--]
[--9-9--2-2--] x8
[--9-9--2-2--]

chorus
outro is same as intro...

have fun.

T\B-Rock_God1023
Comments