Falling Up - Cascades Chords & Tabs

 

Cascades Chords & Tabs

Falling Up Chords & Tabs

Version: 1 Type: Tab 0 ratings
1 star 2 stars 3 stars 4 stars 5 stars
comments

Cascades Tab

   
Falling Up-Cascades
From:Dawn Escapes
Drop D Tuning D-A-D-G-B-E

palm mute=..., etc.
h=hammer on
p=pull off

Intro
Keyboard 

Verse 1
D[-9/9-9-9----9--9-9----5/5-5-5----7--7-7-]
A[-7/7-7-7----7--7-7----3/3-3-3----5--5-5-]x2
D[-7/7-7-7----7--7-7----3/3-3-3----5--5-5-]

Pre-Chorus
D[-3----5-]
A[-3----5-]x2
D[-3----5-]

Chorus
Gtr. 1
G[-7/10/7---7/10/7--------------------]
D[-7/10/7---7/10/7----7/7/7/7/7/7/7/5-]
A[-5/-8/5---5/-8/5----7/7/7/7/7/7/7/5-]x2
D[--------------------7/7/7/7/7/7/7/5-]
                                ...
Gtr. 2
D[-0----------7---7/10-5-]
A[-0----------7---7/10-5-]x2
D[-0----------7---7/10-5-]

Verse 2
D[-9/9-9-9----9--9-9----5--5-5----7--7-7-]
A[-7/7-7-7----7--7-7----3--3-3----5--5-5-]
D[-7/7-7-7----7--7-7----3--3-3----5--5-5-]

D[-9/9-9-9----9--9-9----5/5-5-5----7--7-7-]
A[-7/7-7-7----7--7-7----3/3-3-3----5--5-5-]
D[-7/7-7-7----7--7-7----3/3-3-3----5--5-5-]

Pre-Chorus

Chorus
[ Tab from: http://www.guitartabs.cc/tabs/f/falling_up/cascades_tab.html ]
Bridge
Keyboard/Bass
then
D[--10--]
A[--10--]
D[--10--]
Then
D[-5/7-5/8-5/7-10/10----------5/7-5/8-5/7--12h14p12/10-]
A[-5/7-5/8-5/7------8/8-10/10-5/7-5/8-5/7--12h14p12/10-]
D[-5/7-5/8-5/7----------------5/7-5/8-5/7--12h14p12/10-]

D[-5/7-5/8-5/7-10/10----------5/7-5/8-5/7-xx-xx-xx-x-]
A[-5/7-5/8-5/7------8/8-10/10-5/7-5/8-5/7-xx-xx-xx-x-]
D[-5/7-5/8-5/7----------------5/7-5/8-5/7-xx-xx-xx-x-]

D[-5/7-5/8-5/7-10/10----------5/7-5/8-5/7--12h14p12/10-]
A[-5/7-5/8-5/7------8/8-10/10-5/7-5/8-5/7--12h14p12/10-]
D[-5/7-5/8-5/7----------------5/7-5/8-5/7--12h14p12/10-]

D[-5/7-5/8-5/7-10/10----------5/7-5/8-5/9-]
A[-5/7-5/8-5/7------8/8-10/10-5/7-5/8-5/7-]
D[-5/7-5/8-5/7----------------5/7-5/8-5/7-]
Then
D[-3----7----3----10--5-----3-----7----12----5-]
A[-3----7----3----10--5-----3-----7----10----5-]
D[-3----7----3----10--5-----3-----7----10----5-]

Chorus

Chorus 2
D[-5----9----10----9-----5----9----10----9----5-]
A[-3----5-----7----5-----3----5-----7----5----3-]
D[-3----5-----7----5-----3----5-----7----5----3-]

T\B-Rock_God1023
Comments