Falling Up - Broken Heart Chords & Tabs

 

Broken Heart Chords & Tabs

Falling Up Chords & Tabs

Version: 3 Type: Tab 0 ratings
1 star 2 stars 3 stars 4 stars 5 stars
comments

Broken Heart Tab

   
----------------------------------------------------------------------------                
Broken Heart- Falling Up                            
----------------------------------------------------------------------------

tabber: barrett
email: bearman_44@yahoo.com


tuning:

e|-------------------------------------------------------------------------|
B|-------------------------------------------------------------------------|
G|---------------5---------------------------------------------------------|
D|-5-5-5-4-4-3-3-5---------------------------------------------------------|
A|-5-5-5-4-4-3-3-3---------------------------------------------------------|
E|-3-3-3-2-2-1-1-----------------------------------------------------------|
[ Tab from: http://www.guitartabs.cc/tabs/f/falling_up/broken_heart_tab_ver_3.html ]
e|-------------------------------------------------------------------------|
B|-------------------------------------------------------------------------|
G|-------------------------------------------------------------------------|
D|-7-7-7-7-7-7-7-7-x-7-9-9-9-9-9-9-9-9-x-9-5-5-5-5-5-5-5-5-3-3-3-3-3-3-x-1-|
A|-7-7-7-7-7-7-7-7-x-7-9-9-9-9-9-9-9-9-x-9-5-5-5-5-5-5-5-5-3-3-3-3-3-3-x-1-|
E|-5-5-5-5-5-5-5-5-x-5-7-7-7-7-7-7-7-7-x-7-3-3-3-3-3-3-3-3-1-1-1-1-1-1-x-3-|

e|-------------------------------------------------------------------------|
B|-------------------------------------------------------------------------|
G|-----14-----14---------5-------------------------------------------------|
D|-2-2-X--9-7-X--9-9-7-7-5-------------------------------------------------|
A|-2-2-12-9-7-12-9-9-7-7-3-------------------------------------------------|
E|-0-0----7-5----7-7-5-5---------------------------------------------------|

e|-------------------------------------------------------------------------|
B|-------------------------------------------------------------------------|
G|-------------------------------------------------------------------------|
D|-2-2-2-2-2-2-2-2-5-5-5-5-5-5-5-5-7-7-7-7-7-7-7-9-9-9-9-9-9-9-9-----------|
A|-2-2-2-2-2-2-2-2-5-5-5-5-5-5-5-5-7-7-7-7-7-7-7-9-9-9-9-9-9-9-9-----------|
E|-0-0-0-0-0-0-0-0-3-3-3-3-3-3-3-3-5-5-5-5-5-5-5-7-7-7-7-7-7-7-7-----------|

| /  slide up
| \  slide down
| h  hammer-on
| p  pull-off
| ~  vibrato
| +  harmonic
| x  Mute note
============================================================================
Comments