Falling In Reverse - The Westerner Chords & Tabs

 

The Westerner Chords & Tabs

Falling In Reverse Chords & Tabs

Version: 5 Type: Tab 0 ratings
1 star 2 stars 3 stars 4 stars 5 stars
comments

The Westerner Tab

   
______________________________________________________________________________
-Song: The Westerner
-Album: The Drug In Me Is You
-Artist: Falling in Reverse
-Difficulty: 6/10

This is the second tab I have done, I think this is one of the best songs on the
album and no-one had tabbed it out, so I gave it a shot, it sounds 100% but Iím
not sure about the solo. I tried to tab the start of the solo and it doesnít sound
right, I will try and tab the solo at a later date, sorry. Any suggestions,
corrections or (hopefully not) complaints, you can email me at:

This_addy_sucks@hotmail.co.uk

Or just leave a comment :)

UPDATE: 10/09/12, finished the solo, enjoy!

UPDATE: 25/10/12, Corrected the rhythm behind the solo, and fixed the rhythm for 
the final chorus. Oh and a chord for the rhythm post chorus was wrong, it should 
be 7/7/5, not 7/7/7. 
_____________________________________________________________________________


Tuning: Drop C (CGCFAD)

---Intro---

Lead:
D|-----------------------------------------------------------------------|
A|-6-6-6-6-6-6-6-6-5-5-5-5---------6-6-6-6-6-6-6-6-5-5-5-5---------------|
F|-------------------------6-6-6-6---------------------------6666--------|
C|-----------------------------------------------------------------------|
G|-----------------------------------------------------------------------|
C|-----------------------------------------------------------------------|

Rhythm:
D|-----------------------------------------------------------------------|
A|-----------------------------------------------------------------------|
F|-----------------------------------------------------------------------|
C|-----------------------------------------------------------------------|
G|-----------------------------------------------------------------------|
C|-----------------------------------------------------------------------|

---Verse 1---

Lead/Rhythm:
D|-----------------------------------------------------------------------|
A|-----------------------------------------------------------------------|
F|-7-7-7-7-7-7-7-7-5-5-5-5-2-2-2-2-7-7-7-7-7-7-7-7-5-5-5-5---6666--------|
C|-7-7-7-7-7-7-7-7-5-5-5-5-2-2-2-2-7-7-7-7-7-7-7-7-5-5-5-5---6666--------|
G|-5-5-5-5-5-5-5-5-3-3-3-3-0-0-0-0-5-5-5-5-5-5-5-5-3-3-3-3---4444--------|
C|-----------------------------------------------------------------------|

"I tell the truth"
Lead:
D|------------------|
A|-6-6-6-6-6-6-6-6--|
F|------------------|
C|------------------|
G|------------------|
C|------------------|

Rhythm:
D|------------------|
A|------------------|
F|------------------|
C|------------------|
G|------------------|
C|------------------|

Lead:
D|-----------------------------------------------------------------------|
A|-6-6-6-6-6-6-6-6-5-5-5-5---------6-6-6-6-6-6-6-6-5-5-5-5---------------|
F|-------------------------6-6-6-6---------------------------6666--------|
C|-----------------------------------------------------------------------|
G|-----------------------------------------------------------------------|
C|-----------------------------------------------------------------------|

Rhythm:
D|-----------------------------------------------------------------------|
A|-----------------------------------------------------------------------|
F|-----------------------------------------------------------------------|
C|-----------------------------------------------------------------------|
G|-----------------------------------------------------------------------|
C|-----------------------------------------------------------------------|

Lead/Rhythm:
D|-----------------------------------------------------------------------|
A|-----------------------------------------------------------------------|
F|-7---------------5-------2-------7---------------5-------6-------------|
C|-7---------------5-------2-------7---------------5-------6-------------|
G|-5---------------3-------0-------5---------------3-------4-------------|
C|-----------------------------------------------------------------------|

---Pre-Chorus---

Lead/Rhythm:
D|------------------|
A|------------------|
F|-7~---------------|
C|-7~---------------|
G|-5~---------------|
C|------------------|

---Chorus---

Lead:
D|-----------------------------------------------------------------------|--|
A|-----------------------------------------------------------------------|  |
F|-7---9---15-14-12-10-7---9---15-14-12-10-------------------------------|  |
C|-x---x---x--x--x--x--x---x---x--x--x--x--------------------------------|  |
G|-5---7---13-12-10-8--5---7---13-12-10-8--------------------------------|  |
C|-----------------------------------------------------------------------|  |
                                                                            |--- x2
D|------------------------|------|---------------------------------------|  |
A|------------------------|------|---------------------------------------|  |
F|-7-------10------9------|--12--|--12-x-12-x-12-x-12--------------------|  |
C|-x-------x-------x------|--x---|--x--x-x--x-x--x-x---------------------|  |
G|-5-------8-------7------|--10--|--10-x-10-x-10-x-10--------------------|  |
C|------------------------|------|---------------------------------------|__|
                                                           1st time                 2nd time
Rhythm:
D|-----------------------------------------------------------------------|--|
A|-----------------------------------------------------------------------|  |
F|-7-7-7-7-7-7-7-7-10-10-10-10-10-10-10-10-----------------5-5-5-5-------|  |
C|-7-7-7-7-7-7-7-7-10-10-10-10-10-10-10-10-5-5-5-5-5-5-5-5-5-5-5-5-------|  |
G|-5-5-5-5-5-5-5-5-8--8--8--8--8--8--8--8--5-5-5-5-5-5-5-5-3-3-3-3-------|  |
C|-----------------------------------------5-5-5-5-5-5-5-5---------------|  |
                                                                            |---x2
D|---------|-------------------------------------------------------------|  |
A|---------|-------------------------------------------------------------|  |
F|-5-5-5-5-|-5x5x5x5x----------------------------------------------------|  |
C|-5-5-5-5-|-5x5x5x5x----------------------------------------------------|  |
G|-3-3-3-3-|-3x3x3x3x----------------------------------------------------|  |
C|---------|-------------------------------------------------------------|__|
      1st time         2nd time

---Post chorus---

Lead:
D|-----------------------------------------------------------------------|
A|-----------------------------------------------------------------------|
F|-----------------------------------------------------------------------|
C|-----------------------------------------------------------------------|
G|-5-5-5-5-5-5-5-5-5-5-5-5-5\4\3\2\1\0-----------------------------------|
C|-----------------------------------------------------------------------|
Rhythm:
D|-----------------------------------------------------------------------|
A|-----------------------------------------------------------------------|
F|-7~--------------7~----------------------------------------------------|
C|-7~--------------7~----------------------------------------------------|
G|-5~--------------5~----------------------------------------------------|
C|-----------------------------------------------------------------------|

---Verse 2---

Lead:
D|-----------------------------------------------------------------------|
A|-----------------------------------------------------------------------|
F|-----------------------------------------------------------------------|
C|-----------------------------------------------------------------------|
G|-55555555555555553333333333333333555555555555555533333333--------------|
C|-----------------------------------------------------------------------|
                  These notes are all tremolo picked

Rhythm:
D|-----------------------------------------------------------------------|
A|-----------------------------------------------------------------------|
F|-7~--------------5~------2~------7~--------------5~------6x------------|
C|-7~--------------5~------2~------7~--------------5~------6x------------|
G|-5~--------------3~------0~------5~--------------5~------4x------------|
C|-----------------------------------------------------------------------|

Lead/Rhythm:
D|-----------------------------------------------------------------------|
A|-----------------------------------------------------------------------|
F|-7-7-7-7-7-7-7-7-5-5-5-5-2-2-2-2-7-7-7-7-7-7-7-7-5-5-5-5-6\5\3\2-------|
C|-7-7-7-7-7-7-7-7-5-5-5-5-2-2-2-2-7-7-7-7-7-7-7-7-5-5-5-5-6\5\3\2-------|
G|-5-5-5-5-5-5-5-5-3-3-3-3-0-0-0-0-5-5-5-5-5-5-5-5-3-3-3-3-4\3\1\0-------|
C|-----------------------------------------------------------------------|

---Chorus---

Lead:
D|-----------------------------------------------------------------------|--|
A|-----------------------------------------------------------------------|  |
F|-7---9---15-14-12-10-7---9---15-14-12-10-------------------------------|  |
C|-x---x---x--x--x--x--x---x---x--x--x--x--------------------------------|  |
G|-5---7---13-12-10-8--5---7---13-12-10-8--------------------------------|  |
C|-----------------------------------------------------------------------|  |
                                                                            |--- x2
D|------------------------|------|---------------------------------------|  |
A|------------------------|------|---------------------------------------|  |
F|-7-------10------9------|--12--|--12-x-12-x-12-x-12--------------------|  |
C|-x-------x-------x------|--x---|--x--x-x--x-x--x-x---------------------|  |
G|-5-------8-------7------|--10--|--10-x-10-x-10-x-10--------------------|  |
C|------------------------|------|---------------------------------------|__|
                                                           1st time                 2nd time
Rhythm:
D|-----------------------------------------------------------------------|--|
A|-----------------------------------------------------------------------|  |
F|-7-7-7-7-7-7-7-7-10-10-10-10-10-10-10-10-----------------5-5-5-5-------|  |
C|-7-7-7-7-7-7-7-7-10-10-10-10-10-10-10-10-5-5-5-5-5-5-5-5-5-5-5-5-------|  |
G|-5-5-5-5-5-5-5-5-8--8--8--8--8--8--8--8--5-5-5-5-5-5-5-5-3-3-3-3-------|  |
C|-----------------------------------------5-5-5-5-5-5-5-5---------------|  |
                                                                            |---x2
D|---------|-------------------------------------------------------------|  |
A|---------|-------------------------------------------------------------|  |
F|-5-5-5-5-|-5x5x5x5x----------------------------------------------------|  |
C|-5-5-5-5-|-5x5x5x5x----------------------------------------------------|  |
G|-3-3-3-3-|-3x3x3x3x----------------------------------------------------|  |
C|---------|-------------------------------------------------------------|__|
      1st time         2nd time

---Bridge---
[ Tab from: http://www.guitartabs.cc/tabs/f/falling_in_reverse/the_westerner_tab_ver_5.html ]
Lead/Rhythm:
D|-----------------------------------------------------------------------|
A|-----------------------------------------------------------------------|
F|-----------------------------------------------------------------------|
C|-88888888888877777777777733333333333333--------------------------------| x2
G|-88888888888877777777777733333333333333--------------------------------|
C|-88888888888877777777777733333333333333888888777777--------------------|

Lead:
D|-----------------------------------------------------------------------|
A|-h8p6p5--h5h6-------h8p6p5--h5h6---------------------------------------|
F|--------7------x8----------7-----x6----*The-fast-part-is-in-the-solo*--|
C|-----------------------------------------------------------------------|
G|-----------------------------------------------------------------------|
C|-----------------------------------------------------------------------|

Rhythm:
D|-----------------------------------------------------------------------|
A|-----------------------------------------------------------------------|
F|-----------------------------------------------------------------------|
C|-88888888888877777777777733333333333333--------------------------------| x2
G|-88888888888877777777777733333333333333--------------------------------|
C|-88888888888877777777777733333333333333888888777777--------------------|

////////////////////////////////////////////////////////////////
---Solo---------------------------------------------------------
////////////////////////////////////////////////////////////////

N.B. I noticed that the solo is split up into 4 sections, or 'licks' as i like to call
them. I've separated them into the 4 licks so that it is easier to read and it doesn't
seem like an ongoing solo which is difficult to find where your place is. I don't think 
this is 100% but it's pretty close and it sounds good if played up to speed.

Lead:

::Lick one::

D|-------------------12h13h15-13h15h17-15h17h18-17h18h20-21b-21b-------|
A|-13h15h17-15h17h18---------------------------------------------------|
F|---------------------------------------------------------------------|
C|---------------------------------------------------------------------|
G|---------------------------------------------------------------------|
C|---------------------------------------------------------------------|

D|-17-18-17-18-17-18-17b-17b-22p20-22p20-22-20b------------------------|
A|---------------------------------------------------------------------|
F|---------------------------------------------------------------------|
C|---------------------------------------------------------------------|
G|---------------------------------------------------------------------|
C|---------------------------------------------------------------------|

::Lick two::

D|----------------15-17-15---------------------------------------------|
A|-------------18----------18-17-20-18-17-15---------------------------|
F|-------14-17-------------------------------15----14----15------------|
C|-12-15----------------------------------------12----12----12---------|
G|-------------------------------------------------------------15-12---|
C|---------------------------------------------------------------------|

D|---------------------------------------------------------------------|
A|---------------------------------------------------------------------|
F|---------------------------------------------------------------------|
C|-------15-19-15------15----------------------------------------------|
G|-15-17----------17------15-17b~--------------------------------------|
C|---------------------------------------------------------------------|


::Lick three::

D|---------------------------------------------------------------------|
A|----------------------------------------------------------13-15-13---|
F|-------------------------------14-12-14-------14-12-14-15------------|
C|----------------------12----------------10-12------------------------|
G|-------10-12-10-12-15----15-12---------------------------------------|
C|-12-15---------------------------------------------------------------|
   .  .  .  .  .  .  .  .  .  .           .  .  .  .  .  .

D|----------------------12-15*-----------------------------------------|
A|----------------13-15------------------------------------------------|
F|-15-14-12-14-15------------------------------------------------------|
C|---------------------------------------------------------------------|
G|---------------------------------------------------------------------|
C|---------------------------------------------------------------------|


::Lick four::

The 24p17 and 22p15 are achievable if you use your pinky, but if you want you can tap
the 24 and 22.

D|-17-24p17-22p17-21p17-----\15-22p15-20p15-19p15---13-12----13-17-----|
A|--------------------------------------------------------15-------13--|
F|---------------------------------------------------------------------|
C|---------------------------------------------------------------------|
G|---------------------------------------------------------------------|
C|---------------------------------------------------------------------|

D|---------------------------------------------------------------------|
A|-12------------------------------------------------------------------|
F|----14-12-14-12------------------------------------------------------|
C|----------------15-12-------12---------------------------------------|
G|----------------------15-14----15-14---------------------------------|
C|---------------------------------------------------------------------|

---End of lead part---

Rhythm:
D|-----------------------------------------------------------------------|
A|-----------------------------------------------------------------------|
F|-----------------------------------------------------------------------| X4
C|-0-0006-0000-0001-1-1--------------------------------------------------|
G|-0-0006-0000-0001-1-1--------------------------------------------------|
C|-0-0006-0000-0001-1-1--------------------------------------------------|
     ...  ...  ...
D|-----------------------------------------------------------------------|
A|-----------------------------------------------------------------------|
F|-----------------------------------------------------------------------|
C|-0-0001-1-10-0001-1-1--------------------------------------------------|
G|-0-0001-1-10-0001-1-1--------------------------------------------------|
C|-0-0001-1-10-0001-1-1--------------------------------------------------|
     ...       ...
///////////////////////////////////////////
---End of solo---
///////////////////////////////////////////

---Final chorus---

Lead:
D|-----------------------------------------------------------------------|
A|-----------------------------------------------------------------------|
F|-7~------15-14-12-10-7---9---15-14-12-10-------------------------------|
C|-x-------x--x--x--x--x---x---x--x--x--x--------------------------------|
G|-5~------13-12-10-8--5---7---13-12-10-8--------------------------------|
C|-----------------------------------------------------------------------|

D|-----------------------------------------------------------------------|
A|-----------------------------------------------------------------------|
F|-7-------10------9--------12-------------------------------------------|
C|-x-------x-------x--------x--------------------------------------------|
G|-5-------8-------7--------10-------------------------------------------|
C|-----------------------------------------------------------------------|

Rhythm:
D|-----------------------------------------------------------------------|
A|-----------------------------------------------------------------------|
F|-----------------10-10-10-10-10-10-10-10-----------------5-5-5-5-------|
C|-0~--------------10-10-10-10-10-10-10-10-5-5-5-5-5-5-5-5-5-5-5-5-------|
G|-0~--------------8--8--8--8--8--8--8--8--5-5-5-5-5-5-5-5-3-3-3-3-------|
C|-0~--------------------------------------5-5-5-5-5-5-5-5---------------|

D|-----------------------------------------------------------------------|
A|-----------------------------------------------------------------------|
F|-5-5-5-5---------------------------------------------------------------|
C|-5-5-5-5---------------------------------------------------------------|
G|-3-3-3-3---------------------------------------------------------------|
C|-----------------------------------------------------------------------|

Lead:
D|-----------------------------------------------------------------------|
A|-----------------------------------------------------------------------|
F|-7---9---15-14-12-10-7---9---15-14-12-10-------------------------------|
C|-x---x---x--x--x--x--x---x---x--x--x--x--------------------------------|
G|-5---7---13-12-10-8--5---7---13-12-10-8--------------------------------|
C|-----------------------------------------------------------------------|

D|-----------------------------------------------------------------------|
A|-----------------------------------------------------------------------|
F|-7-------10------9--------6-5-3-2--------------------------------------|
C|-x-------x-------x--------x-x-x-x--------------------------------------|
G|-5-------8-------7--------4-3-1-0--------------------------------------|
C|-----------------------------------------------------------------------|

Rhythm:
D|-----------------------------------------------------------------------|
A|-----------------------------------------------------------------------|
F|-7-7-7-7-7-7-7-7-10-10-10-10-10-10-10-10-----------------5-5-5-5-------|
C|-7-7-7-7-7-7-7-7-10-10-10-10-10-10-10-10-5-5-5-5-5-5-5-5-5-5-5-5-------|
G|-5-5-5-5-5-5-5-5-8--8--8--8--8--8--8--8--5-5-5-5-5-5-5-5-3-3-3-3-------|
C|-----------------------------------------5-5-5-5-5-5-5-5---------------|

D|-----------------------------------------------------------------------|
A|-----------------------------------------------------------------------|
F|-6-5-3-2---------------------------------------------------------------|
C|-6-5-3-2---------------------------------------------------------------|
G|-4-3-1-0---------------------------------------------------------------|
C|-----------------------------------------------------------------------|

---Outro---

Lead/Rhythm:
D|-----------------------------------------------------------------------|
A|-----------------------------------------------------------------------|
F|-----------------------------------------------------------------------|
C|-0---------------------------------------------------------------------|
G|-0---------------------------------------------------------------------|
C|-0---------------------------------------------------------------------|

************************************

| .   palm mute
| /   slide up
| \   slide down
| h   hammer-on
| p   pull-off
| ~   vibrato
| +   harmonic
| *   pinch harmonic
| x   Mute note
| b   Bend
| pb  Pre-bend
| br  Bend release
| pbr Pre-bend release
| brb Bend release bend

************************************
Comments