Falling In Reverse - Im Not A Vampire Chords & Tabs

 

Im Not A Vampire Chords & Tabs

Falling In Reverse Chords & Tabs

Version: 3 Type: Bass Tab 0 ratings
1 star 2 stars 3 stars 4 stars 5 stars
comments

Im Not A Vampire Bass Tab

0:04 Intro
F|--------------------------------------------------------------------|
C|--------------------------------------------------------------------|
G|-/7\-----------------00-000-000-000-033-333-333-333-322-222-222-222-|
C|-----22-222-222-222-2-----------------------------------------------|

F|-----------------------------------------------------------------------|
C|-----------------------------------------------------------------------|
G|-----------------00-000-000-000-033-333-333-333-322-222-2-222222222222-|
C|-22-222-222-222-2------------------------------------------------------|

0:26 Verse
F|-----------------------------------------------------------------|
C|-----------------------------------------------------------------|
G|-----------------00-000-000-000-033-333-333-333-322-222-222-222--|
C|-22-222-222-222-2------------------------------------------------|

F|-----------------------------------------------------------------------|
C|-----------------------------------------------------------------------|
G|-----------------00-000-000-000-033-333-333-333-322-222-2-222222222222-|
C|-22-222-222-222-2------------------------------------------------------|

F|-----------------------------------------------------------------|
C|-----------------------------------------------------------------|
F|-3-3-----5-5---------------------3-3-----5-5-----2-2-----3---5---|
C|-----------------2-2-----4-4-5-5---------------------------------|

0:56 Chorus
F|--------------------------------------------------------------------------|
C|--------------------------------------------------------------------------|
G|-------------------------0-00-00-00-00-00-00-00-03-33-33-33-33-33-33-33-3-|
C|-2-22-22-22-22-22-22-22-2-------------------------------------------------|

F|--------------------------|
C|--------------------------|
G|-2-22-22-22-2-------------|
C|-------------1-----1------|

F|--------------------------------------------------------------------------|
C|--------------------------------------------------------------------------|
G|-------------------------0-00-00-00-00-00-00-00-03-33-33-33-33-33-33-33-3-|
C|-2-22-22-22-22-22-22-22-2-------------------------------------------------|

F|--------------------------|
C|--------------------------|
G|-2-22-22-22-26-----6------|
C|--------------------------|

F|-----------------------------------------------------------------|
C|-----------------------------------------------------------------|
G|-----------------00-000-000-000-033-333-333-333-322-222-222-2222-|
C|-22-222-222-222-2------------------------------------------------|

1:28 Verse
F|-----------------------------------------------------------------|
C|-----------------------------------------------------------------|
G|-----------------00-000-000-000-033-333-333-333-322-222-222-222--|
C|-22-222-222-222-2------------------------------------------------|

C|-----------------------------------------------------------------------|
G|-----------------00-000-000-000-033-333-333-333-322-222-2-222222222222-|
C|-22-222-222-222-2------------------------------------------------------|

F|-----------------------------------------------------------------|
C|-----------------------------------------------------------------|
F|-3-3-----5-5---------------------3-3-----5-5-----2-2-----3---5---|
C|-----------------2-2-----4-4-5-5---------------------------------|
[ Tab from: http://www.guitartabs.cc/tabs/f/falling_in_reverse/im_not_a_vampire_btab_ver_3.html ]
1:59 Chorus
F|--------------------------------------------------------------------------|
C|--------------------------------------------------------------------------|
G|-------------------------0-00-00-00-00-00-00-00-03-33-33-33-33-33-33-33-3-|
C|-2-22-22-22-22-22-22-22-2-------------------------------------------------|

F|--------------------------|
C|--------------------------|
G|-2-22-22-22-2-------------|
C|-------------1-----1------|

F|--------------------------------------------------------------------------|
C|--------------------------------------------------------------------------|
G|-------------------------0-00-00-00-00-00-00-00-03-33-33-33-33-33-33-33-3-|
C|-2-22-22-22-22-22-22-22-2-------------------------------------------------|

F|--------------------------|
C|--------------------------|
G|-2-22-22-22-26-----6------|
C|--------------------------|

2:19 Solo
F|-------------------------------------------------------|
C|-------------------------------------------------------|
G|------------------2-0-------------3-22-------532-------|
C|-22-----2-11----------5-4-55---------------54---54-----|

F|-------------------------------------------------------|
C|-------------------------------------------------------|
G|------------------2-0-------------3-22-----2223--2220--|
C|-22-----2-11----------5-4-55---------------------------|

2:40 Bridge
F|-------------------------------------------------------------------------|
C|-------------------------------------------------------------------------|
G|-0-00--0-00--0-00--0-00--3-33--3-33--3-33--3-33--------------------------|
C|-------------------------------------------------2-22--2-22--2-22--2-22--|

F|-------------------------------------------------------------------------|
C|-------------------------------------------------------------------------|
G|-5-55--5-55--5-55-55-55-50-00--0-00--0-00--0-00--3-33--3-33--3-33--3-33--|
C|-------------------------------------------------------------------------|

F|-------------------------------------------------|
C|-------------------------------------------------|
G|-7-77--7-77--7-77--7-77--6-66--6-66--6--6--------|
C|-------------------------------------------1--1--|

F|------------------------------------------------------------------|
C|------------------------------------------------------------------|
G|-------------------------0-0-----3-3-----2-2-----0-/-/-/-12-\-\-\-|
C|-2-2-----2-2-----2-2----------------------------------------------|

3:18 Chorus
F|--------------------------------------------------------------------------|
C|--------------------------------------------------------------------------|
G|-------------------------0-00-00-00-00-00-00-00-03-33-33-33-33-33-33-33-3-|
C|-2-22-22-22-22-22-22-22-2-------------------------------------------------|

F|--------------------------|
C|--------------------------|
G|-2-22-22-22-2-------------|
C|-------------1-----1------|

F|--------------------------------------------------------------------------|
C|--------------------------------------------------------------------------|
G|-------------------------0-00-00-00-00-00-00-00-03-33-33-33-33-33-33-33-3-|
C|-2-22-22-22-22-22-22-22-2-------------------------------------------------|

F|--------------------------|
C|--------------------------|
G|-2-22-22-22-26-----6------|
C|--------------------------|

3:38
F|-------------------------------------------------------------------------|
C|-------------------------------------------------------------------------|
G|-3-33--3-33--3-33--3-33--------------------------3-33--3-33--3-33--3-33--|
C|-------------------------2-22--2-22--2-22--2-22--------------------------|

F|----------------------------|
C|----------------------------|
G|-2-22--2-22--6-66--6666--7\-|
C|----------------------------|
Tabbed by Dave Vucko
Comments