Fall Out Boy - Yule Shoot Your Eye Out Chords & Tabs

 

Yule Shoot Your Eye Out Chords & Tabs

Fall Out Boy Chords & Tabs

Version: 2 Type: Tab 0 ratings
1 star 2 stars 3 stars 4 stars 5 stars
comments

Yule Shoot Your Eye Out Tab

-->Fall Out Boy - Yule Shoot Your Eye Out<--
Tabbed by Jason Hallare
Juhzun@yahoo.com


Fall out boy = OWNAGE

standard tunning [EADGBe]

--|Intro|--

-Guitar 1 (0:11)-(0:21) fade in with first chords
e--0--0--0--0--|--x--|
B--0--0--0--0--|--x--|
G--4--6--x--1--|--x--|
D--4--6--6--2--|--x--|
A--2--4--6--2--|--x--|
E--------4--0--|--x--|
      (2x)      (end)

-Guitar 2 (0:04)-(0:21)
e--------------------------|
B-----4--2--0----5--4--0---|
G--------------------------|
D---4----------4-----------|
A--------------------------|
E--------------------------|
            (8x)


--|Verse|--

-Guitar 1+2 (0:22)-(0:39)
e--0--0--0--0--|
B--0--0--0--0--|
G--4--6--x--1--|
D--4--6--6--2--|
A--2--4--6--2--|
E--------4--0--|
      (4x)


--|Pre-Chorus|--

-Guitar 1+2 (0:41)-(0:57)
e-----0x--0-----0------0------0--0-----0------0----0~--0~--|
B-----0x--0-----0------0------0--0-----0------0----0~--0~--|
G-----xx--1-----x------1------x--1-----x------1----1~--0~--|
D--5--6x--2--5--6--9/--2---5--6--2--5--6--9/--2----2~--2~--|
A--6--6x--2--6--6--9/--2---6--6--2--6--6--9/--2----2~--2~--|
E--3--4x--0--3--4--7/--0---3--4--0--3--4--7/--0----0~--0~--|


--|Chorus|--

-Guitar 1 (0:58)-(1:13)
e--0-----0-----|--0-----0--0~--0~--|
B--0-----0-----|--0-----0--0~--0~--|
G--4--3--1-----|--4--3--1--1~--0~--|
D--4--4--2--4--|--4--4--2--2~--2~--|
A--2--1--2--4--|--2--1--2--2~--2~--|
E--------0--2--|--------0--0~--0~--|
      (2x)             (end)

-Guitar 2 (0:58)-(1:13)
e--------------------------|
B-----4--2--0----5--4--0---|
G--------------------------|
D---4----------4-----------|
A--------------------------|
E--------------------------|
            (6x)


--|Pre-Verse|-- same as intro

-Guitar 1 (1:15)-(1:23) fade in with first chords
e--0--0--0--0--|--x--|-----------|
B--0--0--0--0--|--x--|-----------|
G--4--6--x--1--|--x--|--6-6-6-6--|
D--4--6--6--2--|--x--|--6-6-6-6--|
A--2--4--6--2--|--x--|--4-4-4-4--|
E--------4--0--|--x--|-----------|
      (2x)      (end) (palm mute)

-Guitar 2 (1:15)-(1:23)
e--------------------------|
B-----4--2--0----5--4--0---|
G--------------------------|
D---4----------4-----------|
A--------------------------|
E--------------------------|
            (4x)


--|Verse|--

-Guitar 1+2 (1:24)-(1:42)
e--0--0--0--0--|
B--0--0--0--0--|
G--4--6--x--1--|
D--4--6--6--2--|
A--2--4--6--2--|
E--------4--0--|
      (4x)


--|Pre-Chorus|--

-Guitar 1+2 (1:42)-(1:58)
e-----0--0-----0------0--|--0----0~--0~--|
B-----0--0-----0------0--|--0----0~--0~--|
G-----x--1-----x------1--|--1----1~--0~--|
D--5--6--2--5--6--9/--2--|--2----2~--2~--|
A--6--6--2--6--6--9/--2--|--2----2~--2~--|
E--3--4--0--3--4--7/--0--|--0----0~--0~--|
           (2x)                (end)


--|Chorus|--
[ Tab from: http://www.guitartabs.cc/tabs/f/fall_out_boy/yule_shoot_your_eye_out_tab_ver_2.html ]
-Guitar 1 (2:00)-(2:15)
e--0-----0-----|--0-----0--0~--0~--|
B--0-----0-----|--0-----0--0~--0~--|
G--4--3--1-----|--4--3--1--1~--0~--|
D--4--4--2--4--|--4--4--2--2~--2~--|
A--2--1--2--4--|--2--1--2--2~--2~--|
E--------0--2--|--------0--0~--0~--|
      (3x)             (end)

-Guitar 2 (2:00)-(2:13)
e--------------------------|
B-----4--2--0----5--4--0---|
G--------------------------|
D---4----------4-----------|
A--------------------------|
E--------------------------|
            (6x)


--|Bridge|--

-Guitar 1 (2:17)-(2:43)
e-------------------------------------------|
B-------------------------------------------|
G-------------------------------------------|
D------44---------44------44---11----22-----|
A-2222----22-2222---------------------------|
E--------------------0000----0----00----00--|
                   (3x)

e--------------------------------------------------------|
B--------------------------------------------------------|
G--------------------------------------------------------|
D------44---------44---------2------2------1-----1-------|
A-2222----22-2222----22----------------------------------|
E-----------------------3333---3333---3333---3333--3333--|

e--------------------------------|
B--------------------------------|
G--------------------------------|
D----------------------------5\--|
A------4------4------4-------4\--|
E-3333---3333---3333---3333--3\--|

-Guitar 2 (2:17)-(2:36)
e--------------------------|
B-----4--2--0----5--4--0---|
G--------------------------|
D---4----------4-----------|
A--------------------------|
E--------------------------|
            (8x)

-Guitar 2 (2:36)-(2:43)
e-------|-----|
B----2--|-----|
G--4----|--4--|
D-------|-----|
A-------|-----|
E-------|-----|
  (13x)  (end)


--|Post-Bridge|--

-Guitar 1 (2:44)-(3:01)
e--------------|--------1--1--|
B--------------|--------1--1--|
G--5--4--------|--5--4--2--1--|
D--5--5--3--5--|--5--5--3--3--|
A--3--2--3--5--|--3--2--3--3--|
E--------1--3--|--------1--1--|
      (3x)           (1x)   

-Guitar 2 (2:44)-(3:01)
e------------------------|
B-----5-----------6-5----|
G--------7--5---------5--|
D---5----------5---------|
A------------------------|
E------------------------|
           (8x)


--|Ending|--

-Guitar 1 (3:02)-(3:20)
e--------------|--------1--1x--|
B--------------|--------1--1x--|
G--5--4--------|--5--4--2--1x--|
D--5--5--3--5--|--5--5--3--3x--|
A--3--2--3--5--|--3--2--3--3x--|
E--------1--3--|--------1--1x--|
      (3x)           (1x)

-Guitar 2 (3:02)-(3:22)
e------------------------|
B-----5-----------6-5----|
G--------7--5---------5--|
D---5----------5---------|
A------------------------|
E------------------------|
            (9x)

last chord (3:22)
e----------|
B--1~------|
G--0~------|
D--2~------|
A--3~--3\--|
E----------|
Comments