Fall Out Boy - The Patron Saint Of Liars And Fakes Chords & Tabs

 

The Patron Saint Of Liars And Fakes Chords & Tabs

Fall Out Boy Chords & Tabs

Version: 3 Type: Tab 0 ratings
1 star 2 stars 3 stars 4 stars 5 stars
comments

The Patron Saint Of Liars And Fakes Tab

   
----------------------------------------------------------------------------
	     The Patron Saint of Liars and Fakes - fall out boy
----------------------------------------------------------------------------
Tabbed by: sean davis	
Email: lazypunk78@aol.com
[ Tab from: http://www.guitartabs.cc/tabs/f/fall_out_boy/the_patron_saint_of_liars_and_fakes_tab_ver_3.html ]
Tuning: drop D  this is the right way to play it / so if you have any questions don't
bother because this tab is right
intro
e|--------------------------------------------------------------------|
B|--------------------------------------------------------------------|
G|---------------------------------------------------5-------------5--|
D|-------5-------3-----3-----10-----8-----7/----32/3-------3-2/3-----|
A|-------5-------5-----5-----8------8-----8/---3----------3-----------|
D|--0-0-----0-0-----0-----8------8------------3---------3-------------|
    . .     . .     .     .      .            ...       . . .
e|--------------------------------------------------------------------|
B|-----------6^^^^^^--------------------------------------------------|
G|------------8^^^^^^-------------------------------------------------|
D|--4444--------------------------------------------------------------|
A|--4444--------------------------------------------------------------|
D|--4444--------------------------------------------------------------|
U can figure out the strumming you're self
e|--------------------------------------------------------------------|
B|--------------------------------------------------------------------|
G|-------------------------------------10-----------------------------|
D|----7----0----10----12---------------x------------------------------|
A|----7----0----7-----8-----3----3-----8------------------------------| 
D|----7----0----7-----8-----2----3------------------------------------|
SO!
e|--------------------------------------------------------------------|
B|--------------------------------------------------------------------|
G|----10----14---12\14/10---------------------------------------------|
D|----x-----x----x--x--x----------------------------------------------|
A|----8-----12---10\12/8----------------------------------------------|
D|--------------------------------------------------------------------|
You can put all that tougher, now hears the slow part
e|--------5----------6-----5------------------------------------------|
B|------------6----------------6--------------------------------------|
G|----------------5---------------------------------------------------|
D|--------------------------------------------------------------------|
A|--------------------------------------------------------------------|
D|--------------------------------------------------------------------|


| /  slide up
| \  slide down
| h  hammer-on
| p  pull-off
| ~  vibrato
| +  harmonic
| x  Mute note
===========================================================================
Comments