Fall Out Boy - Sugar, We're Going Down Chords & Tabs

 

Sugar, We're Going Down Chords & Tabs

Fall Out Boy Chords & Tabs

Version: 3 Type: Tab 0 ratings
1 star 2 stars 3 stars 4 stars 5 stars
comments

Sugar, We're Going Down Tab

   
Fall Out Boy
Sugar, We're Going Down
From Under the Cork Tree

Tabbed by: P8ntballer (aka DarkStar11589)
Email: darkstar11589@msn.com

Tuning: Drop-D (low to high: D A D G B e)

Intro: Guitars 1 & 2
e|-----------------------------------------------|
B|-----------------------------------------------|
G|-----------------------------------------------|
D|-xxxx-00000000-55555550-99999990-55555555-xxxx-|
A|-xxxx-00000000-55555550-99999990-55555555-xxxx-|
D|-xxxx-00000000-55555550-99999990-55555555-xxxx-|

Guitar 1
e|------------------------------------------------------------------------|
B|------------------------------------------------------------------------|
G|------7777------7777------7777------7777------11111111------1111110-----|
D|-0000-xxxx-0000-xxxx-5555-xxxx-5555-xxxx-9999-x-x-x-x--9999-x-x-x-0--7~-|
A|-0000-5555-0000-5555-5555-5555-5555-5555-9999-9-9-9-9--9999-9-9-9-0--5~-|
D|-0000------0000------5555------5555------9999----------9999----------5~-|
|
|Guitar 2
e|----------------------|      e|----|
B|-777-555-888-555-77-5-|      B|-7~-| play this
G|-777-777-777-777-77-7-| x3   G|-7~-| after the
D|----------------------|      D|----| third time
A|----------------------|      A|----|
D|----------------------|      A|----|

Verse 1: Guitar 1(first part of verse is all Bass Guitar)
  "Lie in the grass..."
e|------------------------|
B|------------------------|
G|-7--7--7--7--9--9--9--9-| x4
D|------------------------|
A|-5-5-5-5-7-7-7-7-|
D|------------------------|
|
|Guitar 2
e|------------------------|
B|------------------------|
G|-----2-2h4-2----2h4-2-2-| x4
D|-0-0-0-0---0-2h4------4-|
A|------------------------|
D|------------------------|

Pre-Chorus: Guitars 1 & 2
  "Drop a heart..."
e|---------------------------------------------------------------------------|
B|---------------------------------------------------------------------------|
G|---------------------------------------------------------------------------|
D|-----------------------------------------------------------------5555-xxxx-|
A|-----------------------------------------------------------------5555-xxxx-|
D|-444444-555555---777777-999999---101010101010-99999999990-5555---5555-xxxx-|
P.M.---------------------------------------------------------------

Chorus: Guitars 1 & 2
 "...down, down in an earlier round..."
e|----------------------------------------------------------------------|
B|----------------------------------------------------------------------|
G|----------------------------------------------------------------------|
D|-0000000000000000-5555555555555550-9999999999999990-777777777777-xxxx-|
A|-0000000000000000-5555555555555550-9999999999999990-555555555555-xxxx-|
D|-0000000000000000-5555555555555550-9999999999999990-555555555555-xxxx-|

 "...down, down in an earlier round..."
e|---------------------------------------------------------------------------------|
B|---------------------------------------------------------------------------------|
G|------7777------7770------7777------7777------777-------777-------7777------77-7-|
D|-0000-xxxx-0000-xxx0-5555-xxxx-5555-xxxx-9999-xxx--9999-xxx0-7777-xxxx-7777-55-7-|
A|-0000-5555-0000-5550-5555-5555-5555-5555-9999-9990-9999-9990-5555-5555-5555-55-5-|
D|-0000------0000------5555------5555------9999----0-9999------5555------5555-55-5-|

Post-Chorus: Guitars 1 & 2
e|-----------------------------------------------------------------------------|
B|-----------------------------------------------------------------------------|
G|------------------------------------------------------------------------7777-|
D|-----------------------------------------------------------------7~-----7777-|
A|-----4---------55-----7---------99---------10-------------99-0---5~-----5555-|
D|-444444444-555555-77777777-9999999-101010101010101010-999999-0---5~-----5555-|
P.M.--- ---------  ----- ---------  ---------  ------------- 
[ Tab from: http://www.guitartabs.cc/tabs/f/fall_out_boy/sugar_were_going_down_tab_ver_3.html ]
Verse 2: Guitars 1 & 2 (note changes in the background is the Bass Guitar)
 "...more than you bargained for yet..."
e|-----------------|
B|-----------------|
G|-----------------| x8
D|-0-0-0-0-0-0-0-0-| (last five notes,
A|-----------------|  release palm mute)
D|-----------------|
P.M.--------------

Guitar 1
  "Isn't it messed up..."
e|------------------------|
B|----------7--7--7--7--7-|
G|-77-7--7--7--7--7--7--7-| x4
D|-00-0--0--0--0--0--0--0-|
A|------------------------|
D|------------------------|
|
|Guitar 2
e|------------------------|
B|------------------------|
G|-----2-2-4-2----2-4-2-2-| x4
D|-0-0-0-0---0-2-4------4-|
A|------------------------|
D|------------------------|

Pre-Chorus: Guitars 1 & 2
  "Drop a heart..."
e|--------------------------------------------------------|
B|--------------------------------------------------------|
G|-----------------------------------------------------7~-|
D|-----------------------------------------------------7~-|
A|-----------------------------------------------------5~-|
D|-444444-555555-777777-999999-101010101010-9999999990-5~-|
P.M.--------------------------------------------------

Chorus: Guitars 1 & 2
 "...down, down in an earlier round..."
e|----------------------------------------------------------------------|
B|----------------------------------------------------------------------|
G|----------------------------------------------------------------------|
D|-0000000000000000-5555555555555550-9999999999999990-777777777777-xxxx-|
A|-0000000000000000-5555555555555550-9999999999999990-555555555555-xxxx-|
D|-0000000000000000-5555555555555550-9999999999999990-555555555555-xxxx-|

"...down, down in an earlier round..."
e|---------------------------------------------------------------------------------|
B|---------------------------------------------------------------------------------|
G|------7777------7770------7777------7777------777-------777-------7777------77-7-|
D|-0000-xxxx-0000-xxx0-5555-xxxx-5555-xxxx-9999-xxx--9999-xxx0-7777-xxxx-7777-55-7-|
A|-0000-5555-0000-5550-5555-5555-5555-5555-9999-9990-9999-9990-5555-5555-5555-55-5-|
D|-0000------0000------5555------5555------9999----0-9999------5555------5555-55-5-|

Breakdown: Guitars 1 & 2
         "Down, down in an earlier round..."
e|------------------------------------------------------------------------------------|
B|------------------------------------------------------------------------------------|
G|------------------------------------------------------------------------------------|
D|-2-------0~-------------5~-------------0~-------------5~-------------55-------------|
A|-2-2-2-2-0~-------------5~-------------0~-------------5~-------------55--------/14\-|
D|-2-2-2-2-0~-------------5~-------------0~-------------5~-------------55--------/14\-|
P.M. - - -

Outro Chorus: Guitar 1
 "...down, down..."
e|-----------------------------------------------------|
B|-----------------------------------------------------|
G|-----------------------------------------------------|
D|------------------------------------------------7777-|
A|-00000-00000-55555-55555-99999-99999-55555-5555-5555-|
D|-00000-00000-55555-55555-99999-99999-55555-5555-5555-|
P.M.---------------------------------------------
|
|Guitar 2
e|---------------|
B|-2h3---2h3---3-|
G|-----2-----2---| x8
D|---------------|
A|---------------|
D|---------------|
P.M.   -     -

Guitars 1 & 2
 "...down, down in an earlier round..."
e|-----------------------------------------------------------|
B|-----------------------------------------------------------|
G|-----------------------------------------------------------|
D|-0000000000000000-5555555555555550-9999999999999990------7-|
A|-0000000000000000-5555555555555550-9999999999999990------5-|
D|-0000000000000000-5555555555555550-9999999999999990------5-|

Guitar 1
e|------------|
B|------------|
G|------------|
D|-2-------0~-|
A|-2-2-2-2-0~-|
D|-2-2-2-2-0~-|
P.M. - - -

Guitar 2
e|----------------------------|
B|-777-555-888-555-77-55----7-|
G|-777-777-777-777-77-77----7-|
D|-000-000-000-000-00-00----0-|
A|----------------------------|
D|----------------------------|

| /  slide up
| \  slide down
| h  hammer-on
| p  pull-off
| ~  vibrato
| +  harmonic
| x  Mute note
Comments