Fall Out Boy - Sending Postcards From A Planecrash Chords & Tabs

 

Sending Postcards From A Planecrash Chords & Tabs

Fall Out Boy Chords & Tabs

Version: 1 Type: Bass Tab 0 ratings
1 star 2 stars 3 stars 4 stars 5 stars
comments

Sending Postcards From A Planecrash Bass Tab

   
Standard Tuning

Intro
G -------------------------------------------------------------------------|
D -------------------------------------------------------------------------|
A ---------------------------------5h7p5-----------------------------------|
E 0x--0000--2222--44-55-0000--2222-------7-0000--2222--44-55--0000--55555~-|

Pre Verse
G ----------------------------------|
D ----------------------------------|
A ----------------------------------|
E -00--22--44--55--00--22--44--5555-|

Verse 2x
G ------------------------|
D ------------------------|
A ------------------------|
E -0000--2222--4444--5555-|
[ Tab from: http://www.guitartabs.cc/tabs/f/fall_out_boy/sending_postcards_from_a_planecrash_btab.html ]
Pre Chorus
G -------------------------------------------------------------------------|
D -------------------------------------------------------------------------|
A ------------------------------444-222-2h44-------------------------------|
E 55555555--22222222-4-55555555--------------55555555--22222222-4-55555555-|

Chorus 4x
G ------------------|
D ------------------|
A ------------------|
E -0--02--25--44-55-|

Verse 4x
Pre Chorus
Chorus 4x

Bridge
G ----------------------------------------------------------------|
D ----------------------------------------------------------------|
A ----------------------------------------------------------------|
E -22222222-44444444-55555555-00000000-22222222-44444444-55555555-|

G -------------------------------------------------|
D -------------------------------------------------|
A --------------5--8-7-6---------------------------|
E -000-2~--2-4------------7-5--000--2~--4~--5~--5x-|

Outro
G ---------------------------------------------|
D ---------------------------------------------|
A -444-222-2h44--------------------------------|
E --------------55555555--22222222-4-55555555/-|
Comments