Fall Out Boy - Sending Postcards From A Plane Crash Chords & Tabs

 

Sending Postcards From A Plane Crash Chords & Tabs

Fall Out Boy Chords & Tabs

Version: 2 Type: Tab 0 ratings
1 star 2 stars 3 stars 4 stars 5 stars
comments

Sending Postcards From A Plane Crash Tab

Tuning: Standard.
*Note:: This is only the part for guitar one.

Intro-
e:-----------|---------------------------------------|
B:-----------|---------------------------------------|
G:-----------|---------------------------------------|
D:--2-2------|--2-2-2-2-2-2-2-2--4-4-4-4--6-6-6-6----|
A:--2-2------|--2-2-2-2-2-2-2-2--4-4-4-4--6-6-6-6----|
E:--0-0------|--0-0-0-0-0-0-0-0--2-2-2-2--4-4-4-4----|


Verse 1-
e:----------------------------|----------------------------|
B:----------------------------|----------------------------|
G:----------------------------|----------------------------|
D:--2-2----4-4----6-6----7-7--|--2-2----4-4----6-6----7-7--|
A:--2-2----4-4----6-6----7-7--|--2-2----4-4----6-6----7-7--|
E:--0-0----2-2----4-4----5-5--|--0-0----2-2----4-4----5-5--|

e:----------------------------------------------------------------------|
B:----------------------------------------------------------------------|
G:----------------------------------------------------------------------|
D:--2-2-2-2-2-2-2-2--4-4-4-4-4-4-4-4--6-6-6-6-6-6-6-6--7-7-7-7-7-7-7-7--|
A:--2-2-2-2-2-2-2-2--4-4-4-4-4-4-4-4--6-6-6-6-6-6-6-6--7-7-7-7-7-7-7-7--| 
E:--0-0-0-0-0-0-0-0--2-2-2-2-2-2-2-2--4-4-4-4-4-4-4-4--5-5-5-5-5-5-5-5--|
 PM ***************  ***************  ***************  ***************

e:----------------------------------------------------------------------|
B:----------------------------------------------------------------------|
G:----------------------------------------------------------------------|
D:--2-2-2-2-2-2-2-2--4-4-4-4-4-4-4-4--6-6-6-6-6-6-6-6--7-7-7-7-7-7-7-7--|
A:--2-2-2-2-2-2-2-2--4-4-4-4-4-4-4-4--6-6-6-6-6-6-6-6--7-7-7-7-7-7-7-7--| 
E:--0-0-0-0-0-0-0-0--2-2-2-2-2-2-2-2--4-4-4-4-4-4-4-4--5-5-5-5-5-5-5-5--|
 PM ***************  ***************  ***************  ***************


Pre-Chorus
~Guitar 1~
e:------------------------------------------------------------------------------|
B:------------------------------------------------------------------------------|
G:------------------------------------------------------------------------------|
D:--7-7-7-7-7-7-7-7-6-4-4-4-4-4-4-4-4-6-7-7-7-7-7-7-7-7--2-2-2-2--4-4-4-4--6-6--|
A:--7-7-7-7-7-7-7-7-6-4-4-4-4-4-4-4-4-6-7-7-7-7-7-7-7-7--2-2-2-2--4-4-4-4--6-6--|
E:--5-5-5-5-5-5-5-5-4-2-2-2-2-2-2-2-2-4-5-5-5-5-5-5-5-5--0-0-0-0--2-2-2-2--4-4--|
Every friend we ever had in common...




Chorus
e:--------------------------------------------------|
B:--------------------------------------------------|
G:--------------------------------------------------|
D:--2-2--4-2-1---4-4--4-2-1---6-6--4-2-1---6-6-7-7--|
A:--2-2----------4-4----------6-6----------6-6-7-7--|
E:--0-0----------2-2----------4-4----------4-4-5-5--|
[ Tab from: http://www.guitartabs.cc/tabs/f/fall_out_boy/sending_postcards_from_a_plane_crash_tab_ver_2.html ]
e:--------------------------------------------------|
B:--------------------------------------------------|
G:--------------------------------------------------|
D:--2-2--4-2-1---4-4--4-2-1---6-6--4-2-1---6-6-7-7--|
A:--2-2----------4-4----------6-6----------6-6-7-7--|
E:--0-0----------2-2----------4-4----------4-4-5-5--|

e:--------------------------------------------------|
B:--------------------------------------------------|
G:--------------------------------------------------|
D:--2-2--4-2-1---4-4--4-2-1---6-6--4-2-1---6-6-7-7--|
A:--2-2----------4-4----------6-6----------6-6-7-7--|
E:--0-0----------2-2----------4-4----------4-4-5-5--|

e:--------------------------------------------------|
B:--------------------------------------------------|
G:--------------------------------------------------|
D:--2-2--4-2-1---4-4--4-2-1---6-6--4-2-1---6-6-7-7--|
A:--2-2----------4-4----------6-6----------6-6-7-7--|
E:--0-0----------2-2----------4-4----------4-4-5-5--|


Verse 2
e:-------------------------|
B:-------------------------|
G:---------4~--2~--8~--9~--|
D:--2~~~---4~--2~--x---x---|
A:--2~~~---2~--0~--6~--7~--|
E:--0~~~-------------------|

Bridge
e:----------------------------------------------------------------------|
B:----------------------------------------------------------------------|
G:----------------------------------------------------------------------|
D:--4-4-4-4-4-4-4-4--2-2-2-2-2-2-2-2--7-7-7-7-7-7-7-7--2-2-2-2-2-2-2-2--|
A:--4-4-4-4-4-4-4-4--2-2-2-2-2-2-2-2--7-7-7-7-7-7-7-7--2-2-2-2-2-2-2-2--|
E:--2-2-2-2-2-2-2-2--0-0-0-0-0-0-0-0--5-5-5-5-5-5-5-5--0-0-0-0-0-0-0-0--|

e:-----------------------------------------------------|
B:-----------------------------------------------------|
G:-----------------------------------------------------|
D:--4-4-4-4-4-4-4-4--6-6-6-6-6-6-6-6--7-7-7-7-7-7-7-7--|
A:--4-4-4-4-4-4-4-4--6-6-6-6-6-6-6-6--7-7-7-7-7-7-7-7--|
E:--2-2-2-2-2-2-2-2--4-4-4-4-4-4-4-4--5-5-5-5-5-5-5-5--|


Solo
e:----------|
B:----------|
G:----------|
D:--2--2-2--|
A:--2--2-2--|
E:--0--0-0--|
 PM *  * *

Post-Chorus
e:----------------------------------------------------------------|
B:----------------------------------------------------------------|
G:----------------------------------------------------------------|
D:--2--2-2-2-2-2-2-2-2--4--4-4-4-4-4-4-4-4--6-7--7-7-7-7-7-7-7-7--|
A:--2--2-2-2-2-2-2-2-2--4--4-4-4-4-4-4-4-4--6-7--7-7-7-7-7-7-7-7--|
E:--0--0-0-0-0-0-0-0-0--2--2-2-2-2-2-2-2-2--4-5--5-5-5-5-5-5-5-5--|
 PM    * * * * * * * *     * * * * * * * *       * * * * * * * *  

E:-----------------------------|
B:-----------------------------|
G:-----------------------------|
D:--2-2-2-2--4-4-4-4--6-6-6-6--|
A:--2-2-2-2--4-4-4-4--6-6-6-6--|
E:--0-0-0-0--2-2-2-2--4-4-4-4--|
Comments