Fall Out Boy - Save Your Generation Chords & Tabs

 

Save Your Generation Chords & Tabs

Fall Out Boy Chords & Tabs

Version: 1 Type: Bass Tab 0 ratings
1 star 2 stars 3 stars 4 stars 5 stars
comments

Save Your Generation Bass Tab

Standard Tuning

Intro 2x
G ------------------------------|
D ------------------------------|
A --------55-----------55555555-|
E -77--5-----5--77--5-----------|

Pre Verse
G ----------|
D ----------|
A ----4~----|
E ----------|

Verse
G ----------------------------------------------|
D ----------------------------------------------|
A -4444-------------------5555------------------|
E ------5555--8888--3333-------7777--8888--3333-|

Post Verse
G -----------------------|
D -----------------------|
A -5555------------------|
E ------7777--8888--3333-|

Intro 2x
Verse 2x
Post Verse

Chorus
G ------------------------------------------------------------------------|
D ------------------------------------------------------------------------|
A 5555-------------------------5555-------5------5--5555------------------|
E -----7777--5555--3333--7777--------5555---5555---------7777--5555--3333-|

Post Chorus
G ------------------------|
D ------------------------|
A -------------------5555-|
E -6666--5555--8888-------|
[ Tab from: http://www.guitartabs.cc/tabs/f/fall_out_boy/save_your_generation_btab.html ]
Pre Verse 2
G ----------|
D ----------|
A ----5~----|
E ----------|

Verse 2x
Chorus
Post Chorus
Pre Verse 2

Bridge 2x
G ---------------|
D ---------------|
A -55------------|
E ----66--88--33-|

Bridge Variation
G ----------------------------------------|
D ----------------------------------------|
A -55--555-5------------------------------|
E -----------66--666-6-88--888-8-33--3333-|

G ----------------------------------------------------------------------|
D ----------------------------------------------------------------------|
A 55--555-5-------------------------------------------------------------|
E -----------66--666-6-88--888-8-33333333--33333333--33333333--33333333-|

Chorus
G --------------------------------------------------------------|
D --------------------------------------------------------------|
A -------------------5555-------5------5--5555------------------|
E -5555--3333--7777--------5555---5555---------7777--5555--3333-|

Post Chorus 3x

Outro
G ----------|
D ----------|
A -------55-|
E -77--5----|
Comments