Fall Out Boy - Saturday Chords & Tabs

 

Saturday Chords & Tabs

Fall Out Boy Chords & Tabs

Version: 1 Type: Tab 3 ratings
1 star 2 stars 3 stars 4 stars 5 stars
comments

Saturday Tab

   
Song: Saturday
Band: Fall Out Boy
Album: Take This To Your Grave


Intro

Guitar 1
E-----------------------------------------------------------------------------------|
B-----------------------------------------------------------------------------------|
G----------34343434-4-3-4-3-66666666-99999999----33-44------------------------------|
D-66666666-44444444-4-4-4-4-66666666-99999999-66-33-44-2222222222222222222222222222-|
A-66666666-22222222-2-2-2-2-44444444-77777777-66-11-22-2222222222222222222222222222-|
E-44444444------------------------------------44-------0000000000000000000000000000-|

Guitar 2
E-----------------------------------------------------------------------------------|
B-----------------------------------------------------------------------------------|
G----------34343434-4-3-4-3-66666666-99999999-44-33-44-99-88-66-4444-999/1111-88-44-|
D-66666666-44444444-4-4-4-4-66666666-99999999-xx-xx-xx-xx-xx-xx-xxxx-xxx/xxxx-xx-xx-|
A-66666666-22222222-2-2-2-2-44444444-77777777-22-11-22-77-66-44-2222-777/-9-9-66-22-|
E-44444444--------------------------------------------------------------------------|

Verse 

Guitar 1
E-----------------------------------------------------------------------------|
B-----------------------------------------------------------------------------|
G----------4-------------------------------------4----------------------------|
D-66666666-4-22222222-44444444-22222222-66666666-4-22222222-44444444-22222222-|
A-66666666-2-22222222-44444444-22222222-66666666-2-22222222-44444444-22222222-|
E-44444444---00000000-22222222-00000000-44444444---00000000-22222222-00000000-|
pm.......     .......  .......  .......  ......     .......  .......  .......

Guitar 2
E-----------------------------------------------------------------------------|
B---------------------------------------99999999---12121212-11111111-12121212-|
G-11~-----------------------------88-66---------------------------------------|
D--x~-----------------------------xx-xx---------------------------------------|
A--9~-----------------------------66-44---------------------------------------|
E-----------------------------------------------------------------------------|

prechorus(when I say...)
[ Tab from: http://www.guitartabs.cc/tabs/f/fall_out_boy/saturday_tab.html ]
Guitar 1
E-----------|
B-----------|
G-----------|
D-44-6-2~---|
A-44-6-2~---|
E-22-4-0~---|

Guitar 2
E-----------|
B-----------|
G------6/4~-|
D-44-6-x/x~-|
A-44-6-4/2~-|
E-22-4------|

Chorus

Guitar 1
E-----------------------------------------------------|
B-----------------------------------------------------|
G-----------------------------------66666666-99999999-|
D-9999999999999999-8888888888888888-66666666-xxxxxxxx-| 2x
A-9999999999999999-9999999999999999-44444444-77777777-| 
E-7777777777777777-7777777777777777-------------------|

Guitar 2
E-----------------------------------------------------|
B-----------------------------------------------------|
G-8888888888888888-1111111111111111-44444444444444444-|
D-xxxxxxxxxxxxxxxx-xxxxxxxxxxxxxxxx-xxxxxxxxxxxxxxxxx-| 2x
A-6666666666666666--9-9-9-9-9-9-9-9-22222222222222222-|
E-----------------------------------------------------|

postchorus (both guitars)
E---------------------------|
B---------------------------|
G-----------------6666-9999-|
D-9999----8888----6666-xxxx-| 2x
A-9999----9999----4444-7777-|
E-7777----7777--------------|

Verse 2

Guitar 1
E------------------------------------------------------------------------|
B------------------------------------------------------------------------|
G-------3/4-4~---4/6-3~---3/4-4~------------4----------------------------|
D-6~----x/x-x~---x/x-x~---x/x-x~---66666666-4-22222222-44444444-22222222-|
A-6~----1/2-2~---2/4-1~---1/2-2~---66666666-2-22222222-44444444-22222222-|
E-4~-------------------------------44444444---00000000-22222222-00000000-|
                                 pm.......     .......  .......  .......
  
Guitar 2
E------------------------------------------------------------------------|
B------------------------------------------------------------------------|
G-8~--------4~-------6~-------4~---4444444444-99999999-88888888-99999999-|
D-x~--------x~-------x~-------x~---xxxxxxxxxx-xxxxxxxx-xxxxxxxx-xxxxxxxx-|
A-6~--------2~-------4~-------2~---2222222222-77777777-66666666-77777777-|
E------------------------------------------------------------------------|

prechorus
chorus
postchorus

bridge

Guitar 1
E-----|-------------------------|
B-----|-------------------------|
G-4~--|-------------------------|
Comments