Fall Out Boy - Pretty In Punk Chords & Tabs

 

Pretty In Punk Chords & Tabs

Fall Out Boy Chords & Tabs

Version: 3 Type: Tab

Pretty In Punk Tab

   
Ziz iz my firstes Tabular so rate well plezzzz !!! I hope this is beta than the other 
of shizer 4 this song xD xD xD

‹^› ‹( •¿• )› ‹^›


Intro 1

E|--------------------------------|
B|--------------------------------|
G|---------2-------42---------42--|
D|---------------------0000-------|
A|-00040------4444----------------|                  x 2
E|-------2------------------------|

Intro 2

E|-------------------------------|              E|-----------------|
B|-------------------------------|              B|-----------------|
G|—222222222222------------------|              G|----2~~----------|
D|—222222222222—2—444444444444—2-|    x4        D|----2~~----------|
A|—000000000000—2—444444444444—2-|              A|----0~~----------|
E|--------------0-222222222222—0-|              E|-----------------|


Verse played by other instruments

Bridge Part1

E|-----------------------------------------------------------------------|
B|-----------------------------------------------------------------------|
G|-22222-----------66666---77777----22222-----------66666---777777777777-|
D|-22222---44444---66666---77777----22222---44444---66666---777777777777-|
A|-00000---44444---44444---55555----00000---44444---44444---555555555555-|
E|---------22222----------------------------22222------------------------|

Bridge Part2

E|--------------------------------------------------------------|
B|--------------------------------------------------------------|
G|--------------------------------------------------------------|
D|-999999999---11---1212121212121212---4444444444---222222222---|
A|-999999999---11---1212121212121212---4444444444---222222222---|
E|-777777777---9----1010101010101010---2222222222---000000000---|
[ Tab from: http://www.guitartabs.cc/tabs/f/fall_out_boy/pretty_in_punk_tab_ver_3.html ]
E|-----------------------------------|
B|-----------------------------------|
G|-----------------------------------|
D|-999999999---11---12~~~~~~~--------|
A|-999999999---11---12~~~~~~~--------|
E|-777777777---9----10~~~~~~~--------|


Chorus

E|----------------------------------------------|---------|
B|----------------------------------------------|---------|
G|-22222222----------66666666—77777777----------|-----2~--|
D|-22222222—44444444—66666666—77777777----------|-----2~--|
A|-00000000—44444444—44444444—55555555------x4--|-----0~--|
E|----------22222222----------------------------|---------|


Bridge 3


E|----------------------------------------------------------------|
B|----------------------------------------------------------------|
G|------2-------2--------2-------2-------2------2------2-------2--|
D|-------------------44------44---------------------00-----00-----|
A|--00-----00------------------------44----44---------------------|
E|----------------------------------------------------------------|
Pm  --     --        --      --      --    --       --     --

E|-----------------------------|
B|-----------------------------|
G|—666666—777777-cccccc-999999-|
D|—xxxxxx-xxxxxx-xxxxxx-xxxxxx-|  c =11th fret
A|—444444—555555—999999—777777-|
E|-----------------------------|

Intrulude

E|----------------------------------------------------------|
B|-------22220022-------22220022-------22220022-------------|
G|-22222-22222222-------22222222-------22222222-4444-777777-|
D|-22222----------44444----------22222----------4444-777777-|  x2
A|-00000----------44444----------22222----------2222-555555-|
E|----------------22222----------00000----------------------|


Chorus 2


E|-------------------------|
B|-------------------------|
G|-55555-------99999-uuuuu-|     u=10th fret
D|-55555-77777-99999-uuuuu-|
A|-33333-77777-77777-88888-|   Tempo goes up
E|-------55555-------------|


Have fun DUDEEEEEEESS!!!

Intro 1 x2
Intro 2 x4
Bridge Part 1 x1
Bridge Part 2 x1
Chorus x4
Bridge Part 1 x1
Bridge Part 2 x1
Chorus x4
Bridge 3 x1
Intrulude x2
Chorus x8
Chorus 2 x4