Fall Out Boy - Nobody Puts Baby In The Corner Chords & Tabs

 

Nobody Puts Baby In The Corner Chords & Tabs

Fall Out Boy Chords & Tabs

Version: 3 Type: Tab

Nobody Puts Baby In The Corner Tab

-----------------------------------------------------------------
	Nobody Puts Baby in the Corner - Fall Out Boy
-----------------------------------------------------------------
Tabbed by Richey

Email = Richey02hg@hotmail.com

Tuning: Standard

pretty much im taking the guys format in version 2 and fixing all the errors
this should be about 100% correct

some parts were just totally off, listen for strumming

   Drink down that gin and kerosene,
   And come spit on bridges with me,

(strumming)
e|--------------------------------------------|
B|--------------------------------------------|
G|-5--------5---------------------------------|
D|-5---2----5----2----------------------------|
A|-3---2----3----2----------------------------|
E|-----0---------0----------------------------|


   Just to keep us warm.
   Light a match to leave me be.

e|---------------------------------------------|
B|---------------------------------------------|
G|------5--------5-----------------------------|
D|--3---5----3---5-----------------------------|
A|--3---3----3---3-----------------------------|
E|--1--------1---------------------------------|


Light a match to leave me be.

e|-------------------------|
B|-------------------------|
G|-----------5-------------|
D|--5--3--5--5-------------|
A|--5--3--5--3-------------|
E|--3--1--3----------------|


       I'll keep my jealousy close,
       'Cause it's all mine.
       And if you say this makes you happy,

e|--------------------------|
B|--------------------------|
G|---------------5-5--------|
D|---5-7-7-----5-5-5--------| x3
A|---5-7-7-----5-3-3--------|
E|---3-5-5-----3------------|


Then I'm not the only one lying.

e|---------------------------------------|
B|---------------------------------------|
G|---------------------------------------|
D|---5--5--------------------------------|
A|---5--5--------------------------------|
E|---3--3(strum)-------------------------|

[ Tab from: http://www.guitartabs.cc/tabs/f/fall_out_boy/nobody_puts_baby_in_the_corner_tab_ver_3.html ]
Chorus x2:
Keep quiet,
Nothing comes as easy as you.
Can I lay in your bed all day,
I'll be your best kept secret,
And your biggest mistake?
The hand behind this pen relives a failure every day.

e|--------------------------------|
B|--------------------------------|
G|---5--2-------------------------|
D|---5--2--2--3-------------------| x4
A|---3--0--2--3-------------------|
E|---------0--1-------------------|

Guitar 2 switches to this in chorus
e|----------------0-0--3-3-------------------------|
B|------1-1--3-3-----------1-3-3-1-----------------|
G|--0-0--------------------------------------------|
D|-------------------------------------------------|
A|-------------------------------------------------|
E|-------------------------------------------------|

repeat little prechorus thing, then do verse again
im sure you will figure out what to play in the palmmute part of the verse for guitar 2
after you see the bridge


Bridge - u can hammer/pull off the 1's and 3's to get the better sound but this is simpler
e|------------------------------0-------------------------------|
B|------1--3---1--------1--3------------1--3---1------1---3---1-|
G|--2-2--2---2------2-2--2----2-----2-2---2--2----2-2---2--2----|
D|--------------------------------------------------------------|
A|--------------------------------------------------------------|
E|--------------------------------------------------------------|
   pm all of the bass notes (the 2's)

guitar 2 joins in with F5 then A5, i hope you can figure out those strums


So wear me like a locket around your throat.
I'll weigh you down.
I'll watch you choke.
You look so good in blue.
You look so good in blue.
[x3]

Bridge Part 2 - rhythm guitar
e|-----------------------------|
B|-----------------------------|
G|---------2-------------------|
D|--3--3---2---2---------------|
A|--3--3---0---2---------------|
E|--1--1-------0---------------|

Bridge part 2 - Guitar 2
fool around with these octaves, i hear something like this
e|-------------------------------------------------|play twice
B|-------------------------------------------------|
G|--14---12--14---9---14--12--17-------------------|
D|---x----x---x---x----x---x--x--------------------|
A|--12---10--12---7---12--10--15-------------------|
E|-------------------------------------------------|


then just repeat chorus