Fall Out Boy - Moving Pictures Chords & Tabs

 

Moving Pictures Chords & Tabs

Fall Out Boy Chords & Tabs

Version: 1 Type: Tab 0 ratings
1 star 2 stars 3 stars 4 stars 5 stars
comments

Moving Pictures Tab

band: fall out boy
song: moving pictures

tabber: John Cukras
Email: riffreaper@yahoo.com

Tuning: normal

Vote Libertarian:
Http://www.lp.org

Riff 1:   Guitar 1                     Guitar 2 (used throughout song)
E--------------------------------|---------|
B--------------------------------|---------|
G--------------------------------|--12-9-8-| (rapidly)
D----2-----2-----2-----2---------|---------|
A-6--2--6--2--8--2--8--2-4-6-8---|---------|
E-4--0--4--0--6--0--6--0-2-4-6---|---------|

Riff 2:
E--------------------------------------------|
B--------------------------------------------|
G--------------------------------------------|
D------------2-----------------------------2-|
A-9----------2------------------9----------2-|
E-7-77777777-0-000000000 x's 3--7-77777777-0-|
pm  ........   .........          ........
[ Tab from: http://www.guitartabs.cc/tabs/f/fall_out_boy/moving_pictures_tab.html ]
Riff 3:    Part A                                        Part B
E---------------------------------------------|----------------------------------------------|
B---------------------------------------------|----------------------------------------------|
G---------------------------------------------|----------------------------------------------|
D---------222-222-222-------------2-----------|---------2222222---------2222222--------------|
A-666-444-222-222-222-44--666-444-2--4-6-8-9--|-6666666-2222222-4444444-2222222--------4444--|
E-444-222-000-000-000-22--444-222-0--2-4-6-7--|-4444444-0000000-2222222-0000000 x's 2--2222--|

Riff 3

Riff 3: Part A

Riff 4:
E----------------------------------------------------------------------------------------------|
B----------------------------------------------------------------------------------------------|
G----------------------------------------------------------------------------------------------|
D----------------------------------------------------------------------------------------------|
A-66-666-6/8/9-99-999-9/11/8-88-888-88-888-888-888--------66-666-6/8/9-99-999-9/11-8--4-6-8-9--|
E-44-444-4/6/7-77-777-7/9/-6-66-666-66-666-666-666 x's 3--44-444-4/6/7-77-777-7/9--6--2-4-6-7--|

Riff 3: Part B

Really light strumming, semi-inaudible

Riff 3: Part B x's 4
Comments