Fall Out Boy - Grenade Jumper Chords & Tabs

 

Grenade Jumper Chords & Tabs

Fall Out Boy Chords & Tabs

Version: 1 Type: Bass Tab 0 ratings
1 star 2 stars 3 stars 4 stars 5 stars
comments

Grenade Jumper Bass Tab

   
Intro 2x
G -------------------------------------|
D -------------------------------------|
A -555---------------------------------|
E -----5--333--5--777--222--33333333-5-|

Verse 2x
G ----------------------------------|
D ----------------------------------|
A ----------------------------------|
E -7777--6666--5555--4444--33333333-|

G --------------------------|
D --------------------------|
A --------------------------|
E -/12-12-12-12-12-12-12-12-|

Pre Chorus
G --------------------------------|----------|
D --------------------------------|----------|
A --------------------------------|----------|
E -000-2-3333-5-777-222--33333--5-|-000-2-3~-|
[ Tab from: http://www.guitartabs.cc/tabs/f/fall_out_boy/grenade_jumper_btab.html ]
Chorus 2x
G ------------------------------|
D ------------------------------|
A -5555-------------------------|
E ------5--3333--5--77-22--3333-|

Post Chorus 2x
G -----------------------|
D -----------------------|
A -5555------------------|
E ------3333--5555--5555-|

G ----------------|
D -4--------------|
A ----7-5-7-5-----|
E ------------7-5-|

Verse 2x

G ----------|
D ----------|
A ----------|
E -33333333-

Pre Chorus
Chorus 4x
Post Chorus 4x

Bridge
G ----|-------------------|--------|
D ----|-------------------|--------|
A -5~-|-55555555-55555555-|-55555x-|
E ----|-------------------|--------|

Chorus Variation 3x
G ------------------------|
D ------------------------|
A -5555-------------------|
E ------3333--77-22--3333-|

Last Chorus
G ----------------------------|
D ----------------------------|
A -5555-----------------------|
E ------3333--77-22--3333--5~-|
Comments