Fall Out Boy - Grand Theft Autumn Chords & Tabs

 

Grand Theft Autumn Chords & Tabs

Fall Out Boy Chords & Tabs

Version: 1 Type: Bass Tab 0 ratings
1 star 2 stars 3 stars 4 stars 5 stars
comments

Grand Theft Autumn Bass Tab

   
Drop D tuning

Intro
G --------------------------------------|
D --------------------------------------|
A -55555555--55555555--22222222--00000x-|
D --------------------------------------|

Verse
G --------------------------|------------------------|
D --------------------------|------------------------|
A -55-----------------------|-55---------------------|
D ----4-55--4-22--4-55-55-7-|----4-55--4-22--4-55-55-|

Pre Chorus 1
G ---------------------------------------|------------------------|
D ---------------------------------------|------------------------|
A -55555555--77777777--------------------|------------------------|
D --------------------00000000--55555555-|-55-55--77-77--00-00-0x-|

Chorus
G --------------------------------------------------------------|
D --------------------------------------------------------------|
A -22-----------------------------------------------------------|
D ----55--00--44--55--77--00--44--55--77-00000000-22222222/4h5--|

Intro
Verse
[ Tab from: http://www.guitartabs.cc/tabs/f/fall_out_boy/grand_theft_autumn_btab.html ]
G ---------------------------------------|-------------------------|
D ---------------------------------------|-------------------------|
A -55555555--77777777--------------------|-------------------------|
D --------------------00000000--55555555-|-55-55--77-77--00-00-5-5-|

Chorus

Then
G --------|
D --------|
A -5~--5x-|
D --------|

Pre Bridge
G -------|
D -------|
A -9h10\-
D -------

Bridge - 4x
G -----------------------------------------------|
D ------7-5---5-------7-5---5--------------------|
A -2222-----7----0000-----7----------------------|
D -----------------------------00000000-55555555-|

Then
G ----
D ----
A -5x-
D ----

Post Bridge
G ------------------------------------------|
D ------------------------------------------|
A -5555--7777-------------------------------|
D ------------0000--5555--00000000-22222222-|

Last Chorus
G -------------------------------------------------------------------|
D -------------------------------------------------------------------|
A -55--------------------55----5555-------------------------------5x-|
D ----55--00--44--55--77----44------7777--00000000-22222222/4h5------|
Comments