Fall Out Boy - Get Busy Living Or Get Busy Dying Chords & Tabs

 

Get Busy Living Or Get Busy Dying Chords & Tabs

Fall Out Boy Chords & Tabs

Version: 3 Type: Tab

Get Busy Living Or Get Busy Dying Tab

   
Artist: Fall Out Boy
Song: Get Busy Living or Get Busy Dying
Album: From Under the Cork Tree
Tuning: Standard (E,A,D,G,B,E)

Okay, so I can't take all the credit for this. I just used some of the chords from the
version that someone tabbed out. They were unregistered so I can't exactly give them
credit for a few of the chords. Anyway, since we got that out of the way, I did add in
the lead parts and changed up some of the other riffs.

Guitar 1(lead)
Guitar 2(rhythm)

Intro/Verse(Guitar 1 only)
Heavily Distorted, strum lightly
E----0-000-0-0-000-2-2-222-0-0-000----------------------------|x2
B----0-000-1-1-111-0-0-000-0-0-000----------------------------|
G----0-000-0-0-000-2-2-222-0-0-000----------------------------|
D--2-2-222-2-2-222-1-1-111-2-2-222----------------------------|
A--2-2-222-0-0-000-2-2-222-2-2-222----------------------------|
E--0-0-000-x-x-xxx-x-x-xxx-0-0-000----------------------------|
"This has been said..."

Verse Pt. 2(Guitar 2 only)
E-------------------------------------------------------------|x2
B-------------------------------------------------------------|
G-------------------------------------------------------------|
D-4444---------------4444-------------------------------------|
A-2222-5555-22222222-2222-5555-22222222-----------------------|
E------3333-00000000------3333-00000000-----------------------|
pm.... .... ........ .... .... ........

Pre-Chorus(Guitar 1 only)
E-00-0-000-2-xx-2-xx-2----------------------------------------|
B-11-1-111-0-xx-0-xx-0----------------------------------------|
G-00-0-000-2-xx-2-xx-2----------------------------------------|
D-22-2-222-1-xx-1-xx-1----------------------------------------|
A-33-3-333-2-xx-2-xx-2----------------------------------------|
E-xx-x-xxx-x-xx-x-xx-x----------------------------------------|

Chorus(both guitars)
E-0-0-0000-0-0-0000-------------------------------------------|
B-1-1-1111-3-3-3333-4-4-4444-4-4-4444-------------------------|
G-0-0-0000-0-0-0000-4-4-4444-4-4-4444-------------------------|
D-2-2-2222-0-0-0000-4-4-4444-4-4-4444-------------------------|
A-3-3-3333-2-2-2222-2-2-2222-2-2-2222-------------------------|
E-x-x-xxxx-3-3-3333-------------------------------------------|

E-0-0-0000-0-0-0000----------0-0-0000-------------------------|
B-1-1-1111-3-3-3333-4-4-4444-0-0-0000-------------------------|
G-0-0-0000-0-0-0000-4-4-4444-0-0-0000-------------------------|
D-2-2-2222-0-0-0000-4-4-4444-2-2-2222-------------------------|
A-3-3-3333-2-2-2222-2-2-2222-2-2-2222-------------------------|
E-x-x-xxxx-3-3-3333----------0-0-0000------------------------|

Chorus pt. 2(both guitars)
E-0-0-0000-2-xx-2-xx-2----------------------------------------|
B-1-1-1111-0-xx-0-xx-0----------------------------------------|
G-0-0-0000-2-xx-2-xx-2----------------------------------------|
D-2-2-2222-1-xx-1-xx-1----------------------------------------|
A-3-3-3333-2-xx-2-xx-2----------------------------------------|
E-x-x-xxxx-x-xx-x-xx-x----------------------------------------|

Pre-Verse(guitar 2 only)
E-------------------------------------------------------------|
B-------------------------------------------------------------|
G-------------------------------------------------------------|
D-4444------5555------4444------------------------------------|
A-2222-5555-3333-5555-2222-5555-------------------------------|
E------3333------3333------3333-------------------------------|
pm.... .... .... .... .... ....

After this play the verse again.

Pre-Chorus 2 for guitar 2 is played the same way.
[ Tab from: http://www.guitartabs.cc/tabs/f/fall_out_boy/get_busy_living_or_get_busy_dying_tab_ver_3.html ]
2nd Verse Pt. 2(guitar 1)
E-------------------------------------------------------------|x4
B-------------------------------------------------------------|
G-9---9---9---9---12----12----12----12------------------------|
D---9---9---9---9----12----12----12----12---------------------|
A-------------------------------------------------------------|
E-------------------------------------------------------------|
pm. . . . . . . . .. .. .. .. .. .. .. ..
This is kinda hard to hear, because it is
palm muted higher on the strings than normal.

Now you play the Pre-Chorus and Chorus again.

Bridge Pt. 1(guitar 2)"I used to..."
E-------------------------------------------------------------|x2
B-------------------------------------------------------------|
G-------------------------------------------------------------|
D--------77-55555555-44444444---------------------------------|
A-222222-55-33333333-22222222-22222222------------------------|
E-000000----------------------00000000------------------------|
pm...... .. ........ ........ ........

Bridge Pt. 1(guitar 1)
E-------------------------------------------------------------|
B-------------------------------------------------------------|
G--------------------77777777-7777----------------------------|
D--------------------xxxxxxxx-xxxx----------------------------|
A--------------------55555555-5555----------------------------|
E-------------------------------------------------------------|

Bridge Pt. 2(guitar 2)"This has been said..."
E-------------------------------------------------------------|x2
B-------------------------------------------------------------|
G-------------------------------------------------------------|
D--------77-55555555-44444444---------------------------------|
A-222222-55-33333333-22222222-22222222------------------------|
E-000000----------------------00000000------------------------|

Bridge Pt. 2(guitar 1)
E-------------------------------------------------------------|
B-------------------------------------------------------------|
G-888888-99-1111111111111111-1717171717171717-----------------|
D-xxxxxx-xx--x-x-x-x-x-x-x-x--x-x-x-x-x-x-x-x-----------------|
A-666666-77--9-9-9-9-9-9-9-9-1515151515151515-----------------|
E-------------------------------------------------------------|

Bridgue Pt. 3(Both guitars)
E-------------------------------------------------------------|x2
B-------------------------------------------------------------|
G--------77-55555555-44444444---------------------------------|
D-222222-77-55555555-44444444-22-2-2-2------------------------|
A-222222-55-33333333-22222222-22-2-2-2------------------------|
E-000000----------------------00-0-0-0------------------------|
pm                            .. . . .
                                 Don't play
                                 these 3 chords
                                 the 2nd time.

Final Chorus for guitar 2 is played the normal way.

Final Chorus(guitar 1)
E-------------------------------------------------------------|x2
B-------------------------------------------------------------|
G----5---5------245----4---4---4---4---4---4------------------|
D-45--45-----245----34--34---3---3---3---3--------------------|
A----------45-------------------------------------------------|
E-------------------------------------------------------------|

E-------------2-xx-2-xx-2-xx-2-xx-2---------------------------|
B-------------0-xx-0-xx-0-xx-0-xx-0---------------------------|
G----5---5-5--2-xx-2-xx-2-xx-2-xx-2---------------------------|
D-45--45--4---1-xx-1-xx-1-xx-1-xx-1---------------------------|
A-------------2-xx-2-xx-2-xx-2-xx-2---------------------------|
E-------------x-xx-x-xx-x-xx-x-xx-x---------------------------|


End on

E-0~--|
B-0~--|
G-0~--|
D-2~--|
A-2~--|
E-0~--|

And that's it. The lead part in the final chorus is kinda tough to hear so I'm not sure
I got that right. If you have any questions or comments email me at
SaintJimmy10@yahoo.com.

Thanks and please rate.