Fall Out Boy - Dead On Arrival Chords & Tabs

 

Dead On Arrival Chords & Tabs

Fall Out Boy Chords & Tabs

Version: 1 Type: Bass Tab 0 ratings
1 star 2 stars 3 stars 4 stars 5 stars
comments

Dead On Arrival Bass Tab

Standard Tuning

Intro - 4x                         
G |---------------------|-----------|
D |---------------------|-----------|
A |---------------------|-----------|
E |-1-1-1--5-5-5--3-3-3-|-0-4-5-4-0-|

Verse - 2x
G |----------------------------------------------------------------------|
D |----------------------------------------------------------------------|
A |3-3-3-3-3-3-3-3-------------------------------------------------------|
E |-----------------0-0--1-5--5-5-5--3--1-1-1-1-1-1-1-1-1-1-1-1--3-3-3-3-|

Pre Chorus
G |----------------------------------------------------------------|
D |----------------------------------------------------------------|
A |----------------------------------------------------------------|
E |-5-5-5-5-5-5-5-5--1-1-1-1-1-1-1-1--5-5-5-5-5-5-5-5--1-1--1--3-3-|

Chorus - 4x
G |-------------------------------------|
D |-------------------------------------|
A |-3-3--3------------------------------|
E |---------3-3--5-5--1-1--1--5-5---3-3-|
[ Tab from: http://www.guitartabs.cc/tabs/f/fall_out_boy/dead_on_arrival_btab.html ]
                                  3x
G |----------------------------------|
D |----------------------------------|
A |------------------3-3-3-3-3-3-3-3-|
E |-1-1-1-1-1-1-1-1------------------|

G |----------------------------------|
D |----------------------------------|
A |------------------3-3-3-3---------|
E |-1-1-1-1-1-1-1-1----------3-3-3-3-|

Verse 2x
Pre Chorus 
Chorus - 4x

G |----|-----|
D |----|-----|
A |----|-----|
E |-1~-|-1-1-|

                        4x
G |-------------------------|
D |-------------------------|
A |-------------------------|
E |--1-1--5-5--3-3-3--3-3-3-|

G |--|----------------------------------------------------------------|
D |--|----------------------------------------------------------------|
A |3~|----------------------------------------------------------------|
E |--|1-1-1-1-1-1-1-1-1-1-1-1-1-1-1-1-1-1-1-1-1-1-1-1-3-3-3-3-3-3-3-3-|

Bridge - 2x
G |-----|--------------------------|
D |-----|--------------------------|
A |-3-3-|--------------------------|
E |-----|-1-1--5-5-5--3-3-3--5-5-5-|

End Chorus - 6x
G |-------------------------------------|
D |-------------------------------------|
A |3-3-3-3------------------------------|
E |---------3-3--5-5--1-1-1-1--5-5--3-3-|

Outro
G |-------------|
D |-------------|
A |-----3-3-----|
E |-------------|
Comments