Fall Out Boy - Dance, Dance Chords & Tabs

 

Dance, Dance Chords & Tabs

Fall Out Boy Chords & Tabs

Version: 7 Type: Tab

Dance, Dance Tab

Title  Dance, Dance
Artist Fall Out Boy
Album  From Under the Cork Tree

Tabbed by:James-Matheson

Tuning: Drop D
Guitar 1  Distortion
Guitar 2  Distortion


|Intro (0:04-0:19)

(Bass)

(She says she's no good, with words but I'm worst. Barely stuttered out
"A joke of a romanic," or just stuck to my tongue)
 


Guitar 1
e| |---------------------------------|---------------------------------|
B| |---------------------------------|---------------------------------|
G| |---------------------------------|---------------------------------|
D| |11-9--11-9--12--11-9--11-9--12---|11-9--11-9--12--11-9--11-9--12---|
A| |-----9-----9---9-----9-----9---9-|-----9-----9---9-----9-----9---9-|
D| |---------------------------------|---------------------------------|
     * * * * * * * * * * * * * * * * | * * * * * * * * * * * * * * * *
       Weighed down  over dramatic      Tonight it's   "No one should 
       with words too       	        "It cannot get  ever feel like..."
                                        much worse" vs.  
 
Pre-Chorus (0:29-0:38)


Guitar 1
e| |---------------------------------|---------------------------------|
B| |---------------------------------|---------------------------------|
G| |---------------------------------|---------------------------------|
D| |-----0-0-4-4-2-4------0-0-4-4-2-4|-----0-0-4-4-2-4------0-0-4-4-2-4|
A| |-2-4--------------2-4------------|-2-4--------------2-4------------|
D| |---------------------------------|---------------------------------|
     I'm two quarters And I don't want These words are  So you need them
     and a heart down to forget how    all I have so    just to get by
                      yourvoice sounds I'll write them

Guitar 1
e| |----------------|
B| |----------------|
G| |----------------|
D| |11-9--11-9--12--|
A| |-----9-----9---9|
D| |----------------|
     * * *

 __________________
|Chorus (0:39-0:55)|
|__________________|

Guitar 1
e| |---------------------------------|---------------------------------|
B| |o--------------------------------|--------------------------------o|
G| |---------7-7-7-7-------------2-2-|---------7-7-7-7-------------2-2-|
D| |-9-9-9-9-7-7-7-7-5-5-5-5-4-4-2-2-|-9-9-9-9-7-7-7-7-5-5-5-5-4-4-2-2-|
A| |o9-9-9-9-5-5-5-5-5-5-5-5-4-4-0-0-|-9-9-9-9-5-5-5-5-5-5-5-5-4-4-0-0o|
D| |-9-9-9-9---------5-5-5-5-4-4-----|-9-9-9-9---------5-5-5-5-4-4-----|
  1.    Dance, Dance We're falling        Dance, Dance And these are   |
                     apart to have time                the lives you   |
                                                       love to live    |
                                                                       |
  2.    Dance This is the way they'd      How misery loved me          |
              love to live if they knew                                |
                                                                       |
Guitar 2                                                               |
e| |---------------------------------|---------------------------------|
B| |o--------------------------------|--------------------------------o|
G| |-4-4-4-4-7-7-7-7121212121111-9-9-|-4-4-4-4-7-7-7-7121212121111-9-9-|
D| |-x-x-x-x-x-x-x-x-x-x-x-x-x-x-x-x-|-x-x-x-x-x-x-x-x-x-x-x-x-x-x-x-x-|
A| |o2-2-2-2-5-5-5-510101010-9-9-7-7-|-2-2-2-2-5-5-5-510101010-9-9-7-7o|
D| |---------------------------------|---------------------------------|

 _________________
|Verse (0:56-1:12)|
|_________________|

Guitar 1
e| |---------------------------------|---------------------------------|
B| |---------------------------------|---------------------------------|
G| |---------------------------------|---------------------------------|
D| |11-9--11-9--12--11-9--11-9--12---|11-9--11-9--12--11-9--11-9--12---|
A| |-----9-----9---9-----9-----9---9-|-----9-----9---9-----9-----9---9-|
D| |---------------------------------|---------------------------------|
     * * * * * * * * * * * * * * * *   * * * * * * * * * * * * * * * * |
                                                                       |
Guitar 2                                                               |
e| |---------------------------------|---------------------------------|
B| |---------------------------------|---------------------------------|
G| |-------7~----/-\-------7-----/-\-|-------7-----/-\---------7---/-\-|
D| |-------x---------------x---------|-------x-----------------x-------|
A| |-------5~----/-\-------5-----/-\-|-------5-----/-\---------5---/-\-|
D| |---------------------------------|---------------------------------|

Guitar 1
e| |---------------------------------|---------------------------------|
B| |---------------------------------|---------------------------------|
G| |---------------------------------|---------------------------------|
D| |-9-------------911-9--11-9--12---|11-9--11-9--12--11-9--11-9--12---|
A| |---------------------9-----9---9-|-----9-----9---9-----9-----9---9-|
D| |---------------------------------|---------------------------------|
                     * * * * * * * *   * * * * * * * * * * * * * * * * |
      You always   before you're      Drink up its last  but only the  |
      fold just    found out          call, last resort, first mistake |
                                                                       |
Guitar 2                                                               |
e| |---------------------------------|---------------------------------|
B| |---------------------------------|---------------------------------|
G| |-4-------------4-------7-----/-\-|-------7-----/-\-------7-----/-\-|
D| |-x-------------x-------x---------|-------x-----/-\-------x-----/-\-|
A| |-2-------------2-------5-----/-\-|-------5-----/-\-------5-----/-\-|
D| |---------------------------------|---------------------------------|

 ______________________
|Pre-Chorus (1:13-1:29)|
|______________________|

Guitar 1
e| |---------------------------------|---------------------------------|
B| |---------------------------------|---------------------------------|
G| |---------------------------------|---------------------------------|
D| |-----0-0-4-4-2-4------0-0-4-4-2-4|-----0-0-4-4-2-4------0-0-4-4-2-4|
A| |-2-4--------------2-4------------|-2-4--------------2-4------------|
D| |---------------------------------|---------------------------------|
     I'm two quarters And I don't want These words are  So you need them
     and a heart down to forget how    all I have so    just to get by
                      yourvoice sounds I'll write them

(Bass and Drums)
Why don't you show me the little bit of spine 
you've been saving for his mattress, love.

Guitar 1
e| |----------------|
B| |----------------|
G| |----------------|
D| |-9-9-----9-9-9-9|
A| |-9-9-----9-9-9-9|
D| |-9-9-----9-9-9-9|
     * *     * * *

 __________________
|Chorus (1:30-1:46)|
|__________________|

Guitar 1
e| |---------------------------------|---------------------------------|
B| |o--------------------------------|--------------------------------o|
G| |---------7-7-7-7-------------2-2-|---------7-7-7-7-------------2-2-|
D| |-9-9-9-9-7-7-7-7-5-5-5-5-4-4-2-2-|-9-9-9-9-7-7-7-7-5-5-5-5-4-4-2-2-|
A| |o9-9-9-9-5-5-5-5-5-5-5-5-4-4-0-0-|-9-9-9-9-5-5-5-5-5-5-5-5-4-4-0-0o|
D| |-9-9-9-9---------5-5-5-5-4-4-----|-9-9-9-9---------5-5-5-5-4-4-----|
  1.    Dance, Dance We're falling        Dance, Dance And these are   |
                     apart to have time                the lives you   |
                                                       love to live    |
                                                                       |
  2.    Dance This is the way they'd      How misery loved me          |
              love to live if they knew                                |
                                                                       |
Guitar 2                                                               |
e| |---------------------------------|---------------------------------|
B| |o--------------------------------|--------------------------------o|
G| |-4-4-4-4-7-7-7-7121212121111-9-9-|-4-4-4-4-7-7-7-7121212121111-9-9-|
D| |-x-x-x-x-x-x-x-x-x-x-x-x-x-x-x-x-|-x-x-x-x-x-x-x-x-x-x-x-x-x-x-x-x-|
A| |o2-2-2-2-5-5-5-510101010-9-9-7-7-|-2-2-2-2-5-5-5-510101010-9-9-7-7o|
D| |---------------------------------|---------------------------------|


 __________________
|Bridge (1:47-2:14)|
|__________________|
[ Tab from: http://www.guitartabs.cc/tabs/f/fall_out_boy/dance_dance_tab_ver_7.html ]
Guitar 1
e| |---------------------------------|---------------------------------|
B| |---------------------------------|---------------------------------|
G| |-4-4-4-4-4-4-4-4-6-6-6-6-6-6-6-6-|-7-7-7-7-7-7-7-7-7-91111-11b-11b-|
D| |-x-x-x-x-x-x-x-x-x-x-x-x-x-x-x-x-|-x-x-x-x-x-x-x-x-x-x-x-x---------|
A| |-2-2-2-2-2-2-2-2-4-4-4-4-4-4-4-4-|-5-5-5-5-5-5-5-5-5-7-9-9---------|
D| |---------------------------------|---------------------------------|
                                                                       |
Guitar 2                                                               |
e| |---------------------------------|---------------------------------|
B| |---------------------------------|---------------------------------|
G| |-4-4-4-4-4-4-4-4-6-6-6-6-6-6-6-6-|-7-7-7-7-7-7-7-7-9-9-9-911111111-|
D| |-4-4-4-4-4-4-4-4-7-7-7-7-7-7-7-7-|-7-7-7-7-7-7-7-7-9-9-9-911111111-|
A| |-2-2-2-2-2-2-2-2-4-4-4-4-4-4-4-4-|-5-5-5-5-5-5-5-5-7-7-7-7-9-9-9-9-|
D| |---------------------------------|---------------------------------|

Guitar 1
e| |---------------------------------|---------------------------------|
B| |---------------------------------|---------------------------------|
G| |-4-4-4-4-4-4-4-4-6-6-6-6-6-6-6-6-|-7-7-7-7-7-7-7-7-7-7-7-7-9-9-9-9-|
D| |-x-x-x-x-x-x-x-x-x-x-x-x-x-x-x-x-|-x-x-x-x-x-x-x-x-x-x-x-x-x-x-x-x-|
A| |-2-2-2-2-2-2-2-2-4-4-4-4-4-4-4-4-|-5-5-5-5-5-5-5-5-5-5-5-5-7-7-7-7-|
D| |---------------------------------|---------------------------------|
     Why don't you   little bit of     you've been    (mattress)       |
     show me         spine             saving for             (mattress)
                                       his mattress                    |
Guitar 2                                                               |
e| |---------------------------------|---------------------------------|
B| |---------------------------------|---------------------------------|
G| |-4-4-4-4-4-4-4-4-6-6-6-6-6-6-6-6-|-7-7-7-7-7-7-7-7-9-9-9-911111111-|
D| |-4-4-4-4-4-4-4-4-7-7-7-7-7-7-7-7-|-7-7-7-7-7-7-7-7-9-9-9-911111111-|
A| |-2-2-2-2-2-2-2-2-4-4-4-4-4-4-4-4-|-5-5-5-5-5-5-5-5-7-7-7-7-9-9-9-9-|
D| |---------------------------------|---------------------------------|

Guitar 1
e| |---------------------------------|---------------------------------|
B| |---------------------------------|---------------------------------|
G| |-4-4-4-4-4-4-4-4-6-6-6-6-6-6-6-6-|-7-7-9-9111116161515161618182121-|
D| |-x-x-x-x-x-x-x-x-x-x-x-x-x-x-x-x-|-x-x-x-x-x-x-x-x-x-x-x-x-x-x-x-x-|
A| |-2-2-2-2-2-2-2-2-4-4-4-4-4-4-4-4-|-5-5-7-7-9-914141313141416161919-|
D| |---------------------------------|---------------------------------|
     I only want     in the form of    crawling into bed with me       |
     sympathy        you                                               |
                                                                       |
Guitar 2                                                               |
e| |---------------------------------|---------------------------------|
B| |---------------------------------|---------------------------------|
G| |-4-4-4-4-4-4-4-4-6-6-6-6-6-6-6-6-|-7-7-7-7-7-7-7-7-7-7-7-7-7-7-----|
D| |-4-4-4-4-4-4-4-4-7-7-7-7-7-7-7-7-|-7-7-7-7-7-7-7-7-7-7-7-7-7-7-----|
A| |-2-2-2-2-2-2-2-2-4-4-4-4-4-4-4-4-|-5-5-5-5-5-5-5-5-5-5-5-5-5-5-----|
D| |---------------------------------|---------------------------------|

Guitar 1
e| |---------------------------------|---------------------------------|
B| |---------------------------------|---------------------------------|
G| |11111111111111111111111111111111-|11111111-11b~--------------------|
D| |-x-x-x-x-x-x-x-x-x-x-x-x-x-x-x-x-|-x-x-x-x--x----------------------|
A| |-9-9-9-9-9-9-9-9-9-9-9-9-9-9-9-9-|-9-9-9-9--9b~--------------------|
D| |---------------------------------|---------------------------------|
                                                                       |
Guitar 2                                                               |
e| |---------------------------------|---------------------------------|
B| |---------------------------------|---------------------------------|
G| |---------------------------------|-----------------4-4-4---4---4-4-|
D| |---------------------------------|-----------------4-4-4---4---4-4-|
A| |21-21-21-21-21-21-21-21-21-21-21-|21-21-21-21b~----2-2-2---2---2-2-|
D| |---------------------------------|---------------------------------|
                                                       * * *   *   * *
 __________________
|Chorus (2:15-2:40)|
|__________________|

Guitar 1
e| |---------------------------------|---------------------------------|
B| |o--------------------------------|--------------------------------o|
G| |---------7-7-7-7-------------2-2-|---------7-7-7-7-------------2-2-|
D| |-9-9-9-9-7-7-7-7-5-5-5-5-4-4-2-2-|-9-9-9-9-7-7-7-7-5-5-5-5-4-4-2-2-|
A| |o9-9-9-9-5-5-5-5-5-5-5-5-4-4-0-0-|-9-9-9-9-5-5-5-5-5-5-5-5-4-4-0-0o|
D| |-9-9-9-9---------5-5-5-5-4-4-----|-9-9-9-9---------5-5-5-5-4-4-----|
  1.    Dance, Dance We're falling        Dance, Dance And these are   |
                     apart to have time                the lives you   |
                                                       love to live    |
                                                                       |
  2.    Dance This is the way they'd      Dance This is the way they'd |
              love                              love (they'd love)     |
              (if they knew)                    (if they knew)         |
                                                                       |
Guitar 2                                                               |
e| |---------------------------------|---------------------------------|
B| |o--------------------------------|--------------------------------o|
G| |-4-4-4-4-7-7-7-7121212121111-9-9-|-4-4-4-4-7-7-7-7121212121111-9-9-|
D| |-x-x-x-x-x-x-x-x-x-x-x-x-x-x-x-x-|-x-x-x-x-x-x-x-x-x-x-x-x-x-x-x-x-|
A| |o2-2-2-2-5-5-5-510101010-9-9-7-7-|-2-2-2-2-5-5-5-510101010-9-9-7-7o|
D| |---------------------------------|---------------------------------|

Guitar 1
e| |---------------------------------|---------------------------------|
B| |---------------------------------|---------------------------------|
G| |---------7-7-7-7-------------2-2-|---------7-7-7-7-------------2-2-|
D| |-9-9-9-9-7-7-7-7-5-5-5-5-4-4-2-2-|-9-9-9-9-7-7-7-7-5-5-5-5-4-4-2-2-|
A| |-9-9-9-9-5-5-5-5-5-5-5-5-4-4-0-0-|-9-9-9-9-5-5-5-5-5-5-5-5-4-4-0-0-|
D| |-9-9-9-9---------5-5-5-5-4-4-----|-9-9-9-9---------5-5-5-5-4-4-----|
  3.    Dance This is the way they'd      How misery loved me          |
              love if they knew                                        |
                                                                       |
Guitar 2                                                               |
e| |---------------------------------|---------------------------------|
B| |---------------------------------|---------------------------------|
G| |-4-4-4-4-7-7-7-7121212121111-9-9-|-4-4-4-4-7-7-7-7121212121111-9-9-|
D| |-x-x-x-x-x-x-x-x-x-x-x-x-x-x-x-x-|-x-x-x-x-x-x-x-x-x-x-x-x-x-x-x-x-|
A| |-2-2-2-2-5-5-5-510101010-9-9-7-7-|-2-2-2-2-5-5-5-510101010-9-9-7-7-|
D| |---------------------------------|---------------------------------|

 _________________
|Outro (2:41-3:00)|
|_________________|

Guitar 1 & 2
e| |(0)~~----------------------------|---------------------------------|
B| |-0~~~----------------------------|---------------------------------|
G| |-0~~~----------------------------|---------------------------------|
D| |-0~~~----------------------------|---------------------------------|
A| |-0~~~----------------------------|---------------------------------|
D| |-0~~~----------------------------|---------------------------------|

Guitar 1
e| |---------------------------------|---------------------------------|
B| |---------------------------------|---------------------------------|
G| |---------------------------------|---------------------------------|
D| |11-9--11-9--12--11-9--11-9--12---|11-9--11-9--12--11-9--11-9--12---|
A| |-----9-----9---9-----9-----9---9-|-----9-----9---9-----9-----9---9-|
D| |---------------------------------|---------------------------------|
     * * * * * * * * * * * * * * * *   * * * * * * * * * * * * * * * * |
         Dance, Dance    Dance, Dance      Dance, Dance    Dance, Dance|
                                                                       |
Guitar 2                                                               |
e| |---------------------------------|---------------------------------|
B| |---------------------------------|---------------------------------|
G| |---------------------------------|---------------------------------|
D| |-----0-0-4-4-2-4-----0-0-4-4-2-4-|-----0-0-4-4-2-4-----0-0-4-2-4---|
A| |-2-4-------------2-4-------------|-2-4-------------2-4-----------2-|
D| |---------------------------------|---------------------------------|

 ________
| Legend |
|________|

b   - Bend
*   - Palm Mute
(0) - Slightly Played
~   - Hold
x   - Mute

If you have any comments or any ideas to make it better, plz add my msn-jamesmatheson_123@hotmail.com