Fall Out Boy - Dance, Dance Chords & Tabs

 

Dance, Dance Chords & Tabs

Fall Out Boy Chords & Tabs

Version: 4 Type: Tab 0 ratings
1 star 2 stars 3 stars 4 stars 5 stars
comments

Dance, Dance Tab

This song's intro is played on Bass but here try it on guitar

----------------------------------------------------|
----------------------------------------------------|
----------------------------------------------------|
--------------(0)(0)(0)-----------------------------|
---------------0--0--0------------------------------|
---3--0--3--6--0--0--0------------------------------|

----------------------------------------------------|
----------------------------------------------------|
----------------------------------------------------|
--------------(0)(0)(0)-----------------------------|
---------------0--0--0------------------------------|
---3--0--3--6--0--0--0------------------------------|

----------------------------------------------------|
----------------------------------------------------|
----------------------------------------------------|
--------------(0)(0)(0)-----------------------------|
---------------0--0--0------------------------------|
---3--0--3--6--0--0--0------------------------------|

[ Tab from: http://www.guitartabs.cc/tabs/f/fall_out_boy/dance_dance_tab_ver_4.html ]
   p.m  p.m p.m  p.m  p.m  p.m
----------------------------------------------------|
----------------------------------------------------|
---6---4-----------6---4----------------------------|
-----------4---------------4------------------------|   (x4)
----------------------------------------------------|
----------------------------------------------------|

( Played during the chorus not too sure about this part)

----------------------------------------------------|
----------------------------------------------------|
--7-7-7-7-7-7-------------6-6-6-6-6-----------------|
--7-7-7-7-7-7-7-7-7-7-7-7-6-6-6-6-6-7-7-7-7-7-------|
--5-5-5-5-5-5-7-7-7-7-7-7-4-4-4-4-4-7-7-7-7-7-------|
--------------5-5-5-5-5-5-----------7-7-7-7-7-------|

----------------------------------------------------|
----------------------------------------------------|
--7-7-7-7-7-7-------------6-6-6-6-6-----------------|
--7-7-7-7-7-7-7-7-7-7-7-7-6-6-6-6-6-7-7-7-7-7-------|
--5-5-5-5-5-5-7-7-7-7-7-7-4-4-4-4-4-7-7-7-7-7-------|
--------------5-5-5-5-5-5-----------7-7-7-7-7-------|
Comments