Fall Out Boy - Dance, Dance Chords & Tabs

 

Dance, Dance Chords & Tabs

Fall Out Boy Chords & Tabs

Version: 1 Type: Tab 3 ratings
1 star 2 stars 3 stars 4 stars 5 stars
comments

Dance, Dance Tab

   
Standard Tuning:
E,A,D,G,B,E.
Time Signature:4
               4


h             = Hammer on
p             = Pull off
Let ring (---)= The Area under (---) Let Ring
PM            = Palm Muted
4/6           = Slide from 1st fret to 2nd.

Distorted Throughout

Bass Leads (Continues through Verse)
|--------------------------|
|--------------------------|
|--------------------------|
|--7-7-10--5---3-3-10--5---|

Guitar, From now on. (0:20secs)
(PM)
|----------------|
|----------------|
|--6-4--6-4---7--|
|------4----4--4-|
|----------------|
|----------------|x4

(Same notes as Vocals)
|--------------------|
|--------------------|
|--------------------|
|------------4-4---4-|
|----4-4-5-5---7-7---|
|-7-7----------------|x4
Pre-Chorus
Start PM, release slightly 
and increase volume over bar)
|----------------|
|----------------|
|--6-4--6-4---7--|
|------4----4--4-|
|----------------|
|----------------|x1

Chorus
(Strum Chorus)
Listen or Timing
|-------------------|
|-------------------|
|------7------------|
|--9---7---5---4--7-|
|--9---5---5---4--7-|
|--7-------3---2--5-|x4

Verse 2 Guitar 1
(PM)
|----------------|
|----------------|
|--6-4--6-4---7--|
|------4----4--4-|
|----------------|
|----------------|x6

Verse 2 Guitar 2 Played over Guitar 1

|---------|
|---------|
|---------|
|---------|
|--5------|
|------3--|x6
[ Tab from: http://www.guitartabs.cc/tabs/f/fall_out_boy/dance_dance_tab.html ]
Guitar 1
(Same notes as Vocals)
|--------------------|
|--------------------|
|--------------------|
|------------4-4---4-|
|----4-4-5-5---7-7---|
|-7-7----------------|x4


No Guitar from 1:24s - 1:32s

Chorus 2 
(Strum Chorus)
|-------------------|
|-------------------|
|------7------------|
|--9---7---5---4--7-|
|--9---5---5---4--7-|
|--7-------3---2--5-|x4

Bridge
Guitar 1
(Strum Chords)
Listen for Timing. 
|----------------|
|----------------|
|---6-7-9-11-----|
|-9-6-7-9-11-----|
|-9-4-5-7-9------|
|-7--------------|x3

Through Bridge, Guitar 2 plays several riffs:

Bridge Bar 1       Bridge Bar 2 play nothing   Bridge Bar 3 (100% Correct) 
|--------5/7-5/7-|                             |--------------------------------------------|
|----------------|                             |--------------------------------------------|
|----------------|                             |--------------------------------9-9-9h11-11-|
|----------------|                             |-------------9-9--8-8-9-9-11-11-------------|
|----------------|                             |----------9-9-------------------------------|
|----------------|                             |----10-10-----------------------------------|

Chorus 3 
(Strum Chorus)
|-------------------|
|-------------------|
|------7------------|
|--9---7---5---4--7-|
|--9---5---5---4--7-|
|--7-------3---2--5-|x8

Ends on Intro:
(PM)
|----------------|
|----------------|
|--6-4--6-4---7--|
|------4----4--4-|
|----------------|
|----------------|x4


Enjoy
Any Comments go to jak_d_lad@hotmai.com
Comments