Fall Out Boy - Dance, Dance Chords & Tabs

 

Dance, Dance Chords & Tabs

Fall Out Boy Chords & Tabs

Version: 4 Type: Bass Tab

Dance, Dance Bass Tab

   
Hey, its Siris0E bringin ya another tab...

Band - Fall Out Boy
Song - Dance Dance
Album - From Under the Cork Tree
      Tuning
+-----------------+
|   D, A, D, G,   |
+-----------------+
*From Low to High*

Small Drum Intro

Intro
G|-------------------------|
D|-------------------------|
A|-2-2-5~5-0-0-----5~5-0-0-|
D|-------------5-5---------|x2

Verse
G|-------------------------|
D|-------------------------|
A|-2-2-5~5-0-0-----5~5-0-0-|
D|-------------5-5---------|x4

Pre-Chorous
G|---------------------------------|
D|---------------------------------|
A|-2-2-2-2-5-5-0-0---------5-5-0-0-|
D|-----------------5-5-5-5---------|x2

Chorus
G|---------------------------------|
D|---------------------------------|
A|-2-2-2-2-5-5-5-5-------------0-0-|
D|-----------------5-5-5-5-4-4-----|x4

Pre-Verse
G|-------------------------|
D|-------------------------|
A|-2-2-5~5-0-0-----5~5-0-0-|
D|-------------5-5---------|

Verse
G|---|S|-------------|
D|---|T|-------------|
A|-2-|O|-----5~5-0-0-|
D|---|P|-5 5---------|
[ Tab from: http://www.guitartabs.cc/tabs/f/fall_out_boy/dance_dance_btab_ver_4.html ]
G|-------------------------|
D|-------------------------|
A|-2-2-5~5-0-0-----5~5-0-0-|
D|-------------5-5---------|

Pre-Chorous
G|---------------------------------|
D|---------------------------------|
A|-2-2-2-2-5-5-0-0---------5-5-0-0-|
D|-----------------5-5-5-5---------|x2

Intrlude
G|-------------------------|
D|-------------------------|
A|-2-2-5~5-0-0-----5~5-0-0-|
D|-------------5-5---------|

Chorus
G|---------------------------------|
D|---------------------------------|
A|-2-2-2-2-5-5-5-5-------------0-0-|
D|-----------------5-5-5-5-4-4-----|x4

Bridge
G|---------------------------------|
D|---------------------------------|
A|-2-2-2-2-2-2-2-2-0-0-0-0-0-0-0-0-|
D|---------------------------------|

G|---------------------------------|
D|---------------------------------|
A|---------------------------------|
D|-4-4-4-4-4-4-4-4-5-5-5-5-5-5-5-5-|

G|-----|
D|--4~-|
A|-----|
D|-----|

Chorus
G|---------------------------------|
D|---------------------------------|
A|-2-2-2-2-5-5-5-5-------------0-0-|
D|-----------------5-5-5-5-4-4-----|x4

Outro
G|-------------------------|
D|-------------------------|
A|-2-2-5~5-0-0-----5~5-0-0-|
D|-------------5-5---------|x2

Thats it, just add water, heat for 3 minutes and enjoy!