Fall Out Boy - Dance, Dance Chords & Tabs

 

Dance, Dance Chords & Tabs

Fall Out Boy Chords & Tabs

Version: 2 Type: Bass Tab 0 ratings
1 star 2 stars 3 stars 4 stars 5 stars
comments

Dance, Dance Bass Tab

Intro(x4)
G|--------------------------------------------------------------------------|
D|--------------------------------------------------------------------------|
A|--2-2-2/-5-------5--------------------------------------------------------|
E|---------5-3-3-3/--5------------------------------------------------------|
Pre-chorus(x2)
G|--------------------------------------------------------------------------|
D|--------------------------------------------------------------------------|
A|-2-2-2-2--5-5------------5-5----------------------------------------------|
E|-------------5-5-3-3-3-3-----5-5------------------------------------------|
Chorus(x4)
G|--------------------------------------------------------------------------|
D|--------------------------------------------------------------------------|
A|--2-22222--5-55555--------------------------------------------------------|
E|-------------------555555--22-55------------------------------------------|
Bridge
G|--------------------------------------------------------------------------|
D|--------------------------------------------------------------------------|
A|-22222222-00000000-555555555555555----------------------------------------|
E|--------------------------------------------------------------------------|

| /  slide up
| \  slide down
[ Tab from: http://www.guitartabs.cc/tabs/f/fall_out_boy/dance_dance_btab_ver_2.html ]
Comments