Fall Out Boy - Chicago Is So Two Years Ago Chords & Tabs

 

Chicago Is So Two Years Ago Chords & Tabs

Fall Out Boy Chords & Tabs

Version: 1 Type: Bass Tab 0 ratings
1 star 2 stars 3 stars 4 stars 5 stars
comments

Chicago Is So Two Years Ago Bass Tab

Standard Tuning

Intro 
G |--------------------------------------------|----------------------|
D |--------------------------------------------|----------------------|
A |--------------------------------------------|----------------------|
E |-1-1-1-1--3-3-3-3--0-0-0-0--1-1-1-1-I-1-1-1-|--3-3-3-3--0-0-0-0--1-|

Verse 4x
G |-----------|-------------|
D |-----------|-------------|
A |---3-3-----|-------3-----|
E |-1-----3-3-|-0-0-----3-1-|

                                      3x
G |------------------------------------|
D |------------------------------------|
A |------------------------------------|
E |-1-1-1-1--0-0-0-0--3-3-3-3--5-5-5-5-|

Pre Chorus
G |-----------------------------|
D |-----------------------------|
A |-----------------------------|
E |-1-1-1-1--0-0-0-0--3-3-3-3-3-|

Chorus 
G |----------------------|----------------------------------------------|
D |----------------------|----------------------------------------------|
A |--------3-3--3--------|----------------------------------------------|
E |5-5--5----------1-1--1|3-3--3--5-5--5--3-3--3--1--1-1--1--1-1--1--1-1|
[ Tab from: http://www.guitartabs.cc/tabs/f/fall_out_boy/chicago_is_so_two_years_ago_btab.html ]
G |--------------------------------|-----------------------------------|
D |--------------------------------|-----------------------------------|
A |---------3-3--3-----------------|----------2-2--2-------------------|
E |-5--5-5----------1--1-1--3-3--3-|-5-5--5------------1-1-1-1-1-1-1-1-|

Verse 4x
Post Verse 3x
Pre Chorus 
Chorus

Bridge 5x
G |------------------------------------|
D |------------------------------------|
A |------------------------------------|
E |-1-1-1-1--3-3-3-3--0-0-0-0--1-1-1-1-|

Chorus 

End Chorus 
G |----------------------|----------------------------------------------|
D |----------------------|----------------------------------------------|
A |--------3-3--3--------|----------------------------------------------|
E |5-5--5----------1-1--1|3-3--3--5-5--5--3-3--3--1--1-1--1--1-1--1--1-1|

G |--------------------------------|---------------------|
D |--------------------------------|---------------------|
A |---------3-3--3-----------------|----------2-2--2-----|
E |-5--5-5----------1--1-1--3-3--3-|-5-5--5-----------1~-|

Thanks, please rate it after you learn it.
Comments