Fall Out Boy - Champagne For My Real Friends Real Pain For My Sham Friends Chords & Tabs

 

Champagne For My Real Friends Real Pain For My Sham Friends Chords & Tabs

Fall Out Boy Chords & Tabs

Version: 1 Type: Bass Tab

Champagne For My Real Friends Real Pain For My Sham Friends Bass Tab

   
----------------------------------------------------------------------------- 
Champagne for My Real Friends, Real Pain for My Sham Friends - Fall Out Boy
-----------------------------------------------------------------------------

Tabbed By : Matt
e-mail: snwbrd5830@aol.com

Tuning: D,A,D,G

Intro X4
G|----------------------------------|
D|----------------------------------|
A|---55h7-7-------------------------|
D|----------------------------------|

Verse
G|----------------------------------|
D|----------------------------------|
A|--00000--55555-------00000--------|
D|---------------55555--------------|

G|----------------------------------|
D|----------------------------------|
A|--00000--55555--------333222------|
D|---------------55555--------------|

G|----------------------------------|
D|----------------------------------|
A|--00000--55555-------00000--------|
D|---------------55555--------------|

G|----------------------------------|
D|----------------------------------|
A|--00000--55555--------------------|
D|---------------5/17---------------|

PreChorus
G|----------------------------------|
D|----------------------------------|
A|--0000--5555-------0000-----------|
D|-------------5555-----------------|

G|----------------------------------|
D|----------------------------------|
A|--0000--5555------3322------------|
D|-------------5555-----------------|

G|----------------------------------|
D|----------------------------------|
A|--0000--5555-------0000-----------|
D|-------------5555-----------------|

G|----------------------------------|
D|----------------------------------|
A|--0000--5555--1~------------------|
D|----------------------------------|

Chorus
G|----------------------------------|
D|----------------------------------|
A|--33333333--22222222--------------|
D|---------------------33333333-----|

G|----------------------------------|
D|----------------------------------|
A|--00000000------------------------|
D|------------55555555--33333333----|

G|----------------------------------|
D|----------------------------------|
A|--3-3-3--2-2-2--------------------|
D|---------------3-3-3-3-3-3--------|

G|----------------------------------|
D|----------------------------------|
A|--0-0-0---------------------------|
D|--------5-5-5--333333-------------|

Intro X4
G|----------------------------------|
D|----------------------------------|
A|--55h7-7--------------------------|
D|----------------------------------|

Verse
G|----------------------------------|
D|----------------------------------|
A|--00000--55555-------00000--------|
D|---------------55555--------------|
[ Tab from: http://www.guitartabs.cc/tabs/f/fall_out_boy/champagne_for_my_real_friends_real_pain_for_my_sham_friends_btab.html ]
G|----------------------------------|
D|----------------------------------|
A|--00000--55555--------333222------|
D|---------------55555--------------|

G|----------------------------------|
D|----------------------------------|
A|--00000--55555-------00000--------|
D|---------------55555--------------|

G|----------------------------------|
D|----------------------------------|
A|--00000--55555--------------------|
D|---------------5/17---------------|

PreChorus
G|----------------------------------|
D|----------------------------------|
A|--0000--5555-------0000-----------|
D|-------------5555-----------------|

G|----------------------------------|
D|----------------------------------|
A|--0000--5555------3322------------|
D|-------------5555-----------------|

G|----------------------------------|
D|----------------------------------|
A|--0000--5555-------0000-----------|
D|-------------5555-----------------|

G|----------------------------------|
D|----------------------------------|
A|--0000--5555--1~------------------|
D|----------------------------------|

Chorus 
G|----------------------------------|
D|----------------------------------|
A|--33333333--22222222--------------|
D|---------------------33333333-----|

G|----------------------------------|
D|----------------------------------|
A|--00000000------------------------|
D|------------55555555--33333333----|

G|----------------------------------|
D|----------------------------------|
A|--3-3-3--2-2-2--------------------|
D|---------------3-3-3-3-3-3--------|

G|----------------------------------|
D|----------------------------------|
A|--0-0-0---------------------------|
D|--------5-5-5--333333-------------|

Bridge X2
G|----------------------------------|
D|----------------------------------|
A|--33333333--22222222--------------|
D|---------------------33333333-----|

G|----------------------------------|
D|----------------------------------|
A|--00000000------------------------|
D|------------55555555--33333333----|

Chorus 
G|----------------------------------|
D|----------------------------------|
A|--33333333--22222222--------------|
D|---------------------33333333-----|

G|----------------------------------|
D|----------------------------------|
A|--00000000------------------------|
D|------------55555555--33333333----|

G|----------------------------------|
D|----------------------------------|
A|--3-3-3--2-2-2--------------------|
D|---------------3-3-3-3-3-3--------|

G|-----------------------------------------|
D|-----------------------------------------|
A|--0-0-0----------------------------------|
D|--------5-5-5--3-3-3-3-3---3-3-3-3-3-----|






=============================================================================