Fall Out Boy - A Little Less Sixteen Candles And A Little More Chords & Tabs

 

A Little Less Sixteen Candles And A Little More Chords & Tabs

Fall Out Boy Chords & Tabs

Version: 1 Type: Tab 1 rating
1 star 2 stars 3 stars 4 stars 5 stars
comments

A Little Less Sixteen Candles And A Little More Tab

           Fall Out Boy:A Little Less Sixteen Candles, A Little More Touch Me                




* Just Play It All The Way Through With The Song*                                                                    
Lead Guitar 



      
E||---------------------||---------------------------|
B||---------------------||---------------------------|
G||---------------------||*--7-----11--9----9--9-----|
D||---------------2\----||*-----0-----------------0--|
A||---------------2\----||---5--0---9--7----7--7--0--|
D||---------------2\----||---------------------------|


     
--------------------------|--------------------------|
--------------------------|--------------------------|
--7-----11--9----9--9-----|--7-----11--9----9--9-----|
-----0-----------------0--|-----0-----------------0--|
--5--0---9--7----7--7--0--|--5--0---9--7----7--7--0--|
--------------------------|--------------------------|


     
----------------------------||---------------------------|
----------------------------||---------------------------|
--12----11----9s--7--7--7--*||--12----11----9s--7--7--7--|
---------------------------*||---------------------------|
--10-----9----7s--5--5--5---||--10-----9----7s--5--5--5--|
----------------------------||---------------------------|


  PM PM PM PM PM PM PM PM    PM PM PM PM PM PM PM PM  
    
--------------------------|--------------------------|
--------------------------|--------------------------|
--7--7--7--7--7--7--7--7--|--------------------------|
--5--5--5--5--5--5--5--5--|--5--5--5--5--5--5--5--0--|
--5--5--5--5--5--5--5--5--|--7--7--7--7--7--7--7--0--|
--------------------------|--------------------------|


  PM PM PM PM PM PM PM PM    PM PM PM PM PM PM PM PM  
--------------------------|--------------------------|
--------------------------|--------------------------|
--------------------------|--------------------------|
--9--9--9--9--9--9--9--0--|--5--5--5--5--5--5--5--0--|
--9--9--9--9--9--9--9--0--|--5--5--5--5--5--5--5--0--|
--9--9--9--9--9--9--9--0--|--5--5--5--5--5--5--5--0--|


  PM PM PM PM PM PM PM PM    PM PM PM PM PM PM PM PM  
    
--------------------------|--------------------------|
--------------------------|--------------------------|
--7--7--7--7--7--7--7--7--|--------------------------|
--5--5--5--5--5--5--5--5--|--5--5--5--5--5--5--5--0--|
--5--5--5--5--5--5--5--5--|--7--7--7--7--7--7--7--0--|
--------------------------|--------------------------|


  PM PM PM PM PM PM PM PM    PM PM PM PM PM PM PM PM  
    
--------------------------|--------------------------|
--------------------------|--------------------------|
--------------------------|--------------------------|
--9--9--9--9--9--9--9--0--|--5--5--5--5--5--5--5--0--|
--9--9--9--9--9--9--9--0--|--5--5--5--5--5--5--5--0--|
--9--9--9--9--9--9--9--0--|--5--5--5--5--5--5--5--0--|


  PM PM PM PM PM PM PM PM    PM PM PM PM PM PM PM PM  
    
--------------------------|--------------------------|
--------------------------|--------------------------|
--------------------------|--------------------------|
--7--7--7--7--7--7--7--0--|--5--5--5--5--5--5--5--0--|
--5--5--5--5--5--5--5--0--|--7--7--7--7--7--7--7--0--|
--------------------------|--------------------------|


  PM PM PM PM PM PM PM PM    PM PM PM PM                
--------------------------|----------------------------|
--------------------------|----------------------------|
--------------------------|--------------7--x-x-7--x-x-|
--------------------------|-----------------x-x----x-x-|
--9--9--9--9--9--9--9--0--|--5--5--5--5--5--x-x-5--x-x-|
--9--9--9--9--9--9--9--0--|--5--5--5--5----------------|


       
------------------------|-------------------------|-----------------------|
------------------------|-------------------------|-----------------------|
---------------------4--|--L--4--4----4--4--4-----|--7----7--7----7--7----|
--5----5----5--5-----4--|--L--4--4----4--4--4-----|--5----5--5----5--5----|
--5----5----5--5-----2--|--L--2--2----2--2--2-----|--5----5--5----5--5----|
--5----5----5--5--0-----|----------------------0--|--5----5--5----5--5----|


     PM PM PM                                                                  
    
--------------------------|-------------------------|-------------------------|
--------------------------|-------------------------|-------------------------|
--7-----------7--7--7-----|-------------------------|-------------------------|
--5-----------5--5--5-----|-------------------------|-------------------------|
--5--5--5--5--5--5--5-----|--0--0--4--5----5--5--5--|--5--5--7--9----9--9--0--|
--5--5--5--5--5--5--5--0--|--0--0--4--5----5--5--5--|--5--5--7--9----9--9--0--|


    
-------------------------|------------------------|-------------------------|
-------------------------|------------------------|-------------------------|
-------------------------|------------------------|-------------------------|
-------------------------|------------------------|-------------------------|
--5--5--5--5----5--5--0--|--9----7----5--5--5--5--|--0--0--4--5----5--5--5--|
--4--4--4--5----5--5--0--|--9----7----5--5--5--5--|--0--0--4--5----5--5--5--|


              
-------------------------|-------------------------|--------------------|
-------------------------|-------------------------|--------------------|
-------------------------|-------------------------|--------------------|
-------------------------|-------------------------|--------------------|
--5--5--7--9----9--9--0--|--5--5--5--5----5--5--5--|--5-----------------|
--5--5--7--9----9--9--0--|--4--4--4--5----5--5--5--|--5-----------------|


     
--------------------------|--------------------------|
--------------------------|--------------------------|
--7-----11--9----9--9-----|--7-----11--9----9--9-----|
-----0-----------------0--|-----0-----------------0--|
--5--0---9--7----7--7--0--|--5--0---9--7----7--7--0--|
--------------------------|--------------------------|


    
--------------------------|---------------------------|
--------------------------|---------------------------|
--7-----11--9----9--9-----|--12----11----9s--7--7--7--|
-----0-----------------0--|---------------------------|
--5--0---9--7----7--7--0--|--10-----9----7s--5--5--5--|
--------------------------|---------------------------|


  PM PM PM PM PM PM PM PM    PM PM PM PM PM PM PM PM  
     
--------------------------|--------------------------|
--------------------------|--------------------------|
--------------------------|--------------------------|
--7--7--7--7--7--7--7--0--|--5--5--5--5--5--5--5--0--|
--5--5--5--5--5--5--5--0--|--7--7--7--7--7--7--7--0--|
--------------------------|--------------------------|


  PM PM PM PM PM PM PM PM    PM PM PM PM PM           
--------------------------|--------------------------|
--------------------------|--------------------------|
--------------------------|-----------------7-----7--|
--------------------------|-----------------7-----7--|
--9--9--9--9--9--9--9--0--|--5--5--5--5--5-----------|
--9--9--9--9--9--9--9--0--|--5--5--5--5--5-----------|


  PM PM PM PM PM PM PM PM    PM PM PM PM PM PM PM PM  
   
--------------------------|--------------------------|
--------------------------|--------------------------|
--------------------------|--------------------------|
--7--7--7--7--7--7--7--0--|--5--5--5--5--5--5--5--0--|
--5--5--5--5--5--5--5--0--|--7--7--7--7--7--7--7--0--|
--------------------------|--------------------------|

[ Tab from: http://www.guitartabs.cc/tabs/f/fall_out_boy/a_little_less_sixteen_candles_and_a_little_more_tab.html ]
  PM PM PM PM PM PM PM PM    PM PM PM PM PM           
     
--------------------------|--------------------------|
--------------------------|--------------------------|
--------------------------|-----------------7-----7--|
--------------------------|-----------------7-----7--|
--9--9--9--9--9--9--9--0--|--5--5--5--5--5-----------|
--9--9--9--9--9--9--9--0--|--5--5--5--5--5-----------|


     
--------------------------|--------------------------|
--------------------------|--------------------------|
--7--7-----7--7--7-----7--|--7--7-----7--7--7-----7--|
--------------------------|--------------------------|
--5--5-----5--5--5-----5--|--5--5-----5--5--5-----5--|
--------------------------|--------------------------|


  
--------------------------|--------------------------|------------------------|
--------------------------|--------------------------|------------------------|
--7--7-----7--7--7-----7--|--7--7-----7--7--7--7-----|---------------------4--|
--------------------------|-----------------------0--|--5----5----5--5--0--4--|
--5--5-----5--5--5-----5--|--5--5-----5--5--5--5--0--|--5----5----5--5--0--2--|
--------------------------|--------------------------|--5----5----5--5--0-----|


        
-------------------------|------------------------|------------------------|
-------------------------|------------------------|------------------------|
--L--4--4----4--4--4-----|--7----7--7----7--7--7--|--7---------------------|
--L--4--4----4--4--4--0--|--5----5--5----5--5--5--|--5---------------------|
--L--2--2----2--2--2--0--|--5----5--5----5--5--5--|--5---------------------|
----------------------0--|--5----5--5----5--5--5--|--5--------------12\----|


  
-------------------------|-------------------------|-------------------------|
-------------------------|-------------------------|-------------------------|
-------------------------|-------------------------|-------------------------|
-------------------------|-------------------------|-------------------------|
--0--0--4--5----5--5--5--|--5--5--7--9----9--9--0--|--5--5--5--5----5--5--0--|
--0--0--4--5----5--5--5--|--5--5--7--9----9--9--0--|--4--4--4--5----5--5--0--|


    
------------------------|-------------------------|-------------------------|
------------------------|-------------------------|-------------------------|
------------------------|-------------------------|-------------------------|
------------------------|-------------------------|-------------------------|
--9----7----5--5--5--5--|--0--0--4--5----5--5--5--|--5--5--7--9----9--9--0--|
--9----7----5--5--5--5--|--0--0--4--5----5--5--5--|--5--5--7--9----9--9--0--|


  
-------------------------|--------------------|-----------------------------|
-------------------------|--------------------|-----------------------------|
-------------------------|--------------------|-----------------------------|
-------------------------|--------------------|--0--0--7p--0--2p--0--4p--0--|
--5--5--5--5----5--5--5--|--5-----------------|-----------------------------|
--4--4--4--5----5--5--5--|--5-----------------|-----------------------------|


           
-----------------------------|-----------------------------|-------|
-----------------------------|-----------------------------|-------|
-----------------------------|-----------------------------|-------|
--0--0--7p--0--2p--0--4p--0--|--0--0--7p--0--2p--0--4p--0--|-------|
-----------------------------|-----------------------------|-------|
-----------------------------|-----------------------------|-------|


  
-----------------------------|-----------------------------|
-----------------------------|-----------------------------|
-----------------------------|-----------------------------|
--0--0--7p--0--2p--0--4p--0--|--0--0--7p--0--2p--0--4p--0--|
-----------------------------|-----------------------------|
-----------------------------|-----------------------------|


  
-----------------------------|-------|-----------------------------|
-----------------------------|-------|-----------------------------|
-----------------------------|-------|-----------------------------|
--0--0--7p--0--2p--0--4p--0--|-------|--0--0--7p--0--2p--0--4p--0--|
-----------------------------|-------|-----------------------------|
-----------------------------|-------|-----------------------------|


   
---------------------------|-------------------|----------------------|
---------------------------|-------------------|----------------------|
---------------------------|-------------------|----------------------|
--0--0--7--4--5p--4--2--0--|--7----------------|---------------7--7-7-|
---------------------------|--5----------------|---------------5--5-5-|
---------------------------|--5----------------|----------------------|


   
-------------------------|-------------------------|-------------------------|
-------------------------|-------------------------|-------------------------|
-------------------------|-------------------------|-------------------------|
-------------------------|-------------------------|-------------------------|
--0--0--4--5----5--5--5--|--5--5--7--9----9--9--0--|--5--5--5--5----5--5--0--|
--0--0--4--5----5--5--5--|--5--5--7--9----9--9--0--|--4--4--4--5----5--5--0--|


    
------------------------|-------------------------|-------------------------|
------------------------|-------------------------|-------------------------|
------------------------|-------------------------|-------------------------|
------------------------|-------------------------|-------------------------|
--9----7----5--5--5--5--|--0--0--4--5----5--5--5--|--5--5--7--9----9--9--0--|
--9----7----5--5--5--5--|--0--0--4--5----5--5--5--|--5--5--7--9----9--9--0--|


   
-------------------------|--------------------|--------------------------|
-------------------------|--------------------|--------------------------|
-------------------------|--------------------|--7-----11--9----9--9-----|
-------------------------|--------------------|-----0-----------------0--|
--5--5--5--5----5--5--5--|--5-----------------|--5--0---9--7----7--7--0--|
--4--4--4--5----5--5--5--|--5-----------------|--------------------------|


     
--------------------------|--------------------------|
--------------------------|--------------------------|
--7-----11--9----9--9-----|--7-----11--9----9--9-----|
-----0-----------------0--|-----0-----------------0--|
--5--0---9--7----7--7--0--|--5--0---9--7----7--7--0--|
--------------------------|--------------------------|


     
---------------------------|--------------------------|
---------------------------|--------------------------|
--12----11----9s--7--7--7--|--7-----11--9----9--9-----|
---------------------------|-----0-----------------0--|
--10-----9----7s--5--5--5--|--5--0---9--7----7--7--0--|
---------------------------|--------------------------|


    
--------------------------|--------------------------|---------------------|
--------------------------|--------------------------|---------------------|
--7-----11--9----9--9-----|--7-----11--9----9--9-----|--7------------------|
-----0-----------------0--|-----0-----------------0--|---------------------|
--5--0---9--7----7--7--0--|--5--0---9--7----7--7--0--|--5------------------|
--------------------------|--------------------------|---------------------|


                       
-------------------|-----||
-------------------|-----||
--7----------------|-----||
--7----------------|-----||
--5----------------|-----||
-------------------|-----||




Comments