Fall Out Boy - 7 Minutes In Heaven (atavan Halen) Chords & Tabs

 

7 Minutes In Heaven (atavan Halen) Chords & Tabs

Fall Out Boy Chords & Tabs

Version: 4 Type: Tab

7 Minutes In Heaven (atavan Halen) Tab

   
                              7 Minutes in Heaven                               
(206)BPM

                                                                    Fall Out Boy
Guitar Part One (See Guitar Part Two After This Part)



        PM PM    PM PM    PM    PM    PM PM    PM    PM  
     E  E  E  E  E  E  E  E     E  E  E  E  E  E  E  E   
E||--------------------------|--------------------------|
B||--5--------4--------2-----|-----5--------4-----2-----|
G||--4--4--4--4--4--4--4--4--|--4--4--4--4--4--4--4--4--|
D||--------------------------|--------------------------|
A||--------------------------|--------------------------|
E||--------------------------|--------------------------|


     PM PM    PM PM    PM    PM    PM PM    PM         
  E  E  E  E  E  E  E  E     E  E  E  E  E  E  E  E    
--------------------------|---------------------------|
--5--------4--------2-----|-----5--------4-----2------|
--4--4--4--4--4--4--4--4--|--4--4--4--4--4--4--4--6S--|
--------------------------|-----------------------x---|
--------------------------|-----------------------4S--|
--------------------------|---------------------------|


  E  E  E  E  E  Q    E     E  E  E  E  E  Q    E     E  E  E  E  E  E  E  E   
-------------------------|-------------------------|--------------------------|
-------------------------|-------------------------|--------------4--4--4--4--|
-------------------------|-----------------4----4--|--------------4--4--4--4--|
--6--6--6--6--x--2----2--|--4--4--4--4--x--4----4--|--6--6--6--6--4--4--4--4--|
--6--6--6--6--x--2----2--|--4--4--4--4--x--2----2--|--6--6--6--6--2--2--2--2--|
--4--4--4--4--x--0----0--|--2--2--2--2--x--2----2--|--4--4--4--4--0--0--0--0--|


  E  E  E  E  E  E  E  E     E  E  E  E  E  Q    E     E  E  E  E  E  Q    E   
--------------------------|-------------------------|-------------------------|
--------------------------|-------------------------|-------------------------|
--------------------------|-------------------------|-----------------4----4--|
--4--4--4--4--4--4--4--4--|--6--6--6--6--x--2----2--|--4--4--4--4--x--4----4--|
--4--4--4--4--4--4--4--4--|--6--6--6--6--x--2----2--|--4--4--4--4--x--2----2--|
--2--2--2--2--2--2--2--2--|--4--4--4--4--x--0----0--|--2--2--2--2--x--2----2--|


                                                       PM PM    PM PM PM    PM  
  E  E  E  E  E  E  E  E     E  E  E  E  Q    E  E     E  E  E  E  E  E  E  E   
--------------------------|-------------------------|--------------------------|
--------------4--4--4--4--|-------------------------|--------4-----------4-----|
--------------4--4--4--4--|-------------------------|--------4-----------4-----|
--6--6--6--6--4--4--4--4--|--4--4--4--4--4----x--x--|--------4-----------4-----|
--6--6--6--6--2--2--2--2--|--4--4--4--4--4----x--x--|--------6-----------6-----|
--4--4--4--4--0--0--0--0--|--2--2--2--2--2----x--x--|--4--4--4--4--4--4--4--4--|


  PM PM    PM PM PM           PM PM     PM PM PM     PM  
  E  E  E  E  E  E  E  E      E  E   E  E  E  E   E  E   
---------------------------|----------------------------|
--------4-----------4--4/--|----------------------------|
--------4-----------4--4/--|---------9------------9-----|
--------4-----------4--4/--|---------9------------9-----|
--------6-----------6--6/--|--------11-----------11-----|
--4--4--4--4--4--4--4--4S--|--9--9---9--9--9--9---9--9--|


  PM PM     PM PM PM            PM PM    PM PM PM    PM  
  E  E   E  E  E  E   E   E     E  E  E  E  E  E  E  E   
-----------------------------|--------------------------|
-----------------------------|--------------------------|
---------9------------9---9--|--------9-----------9-----|
---------9------------9---9--|--------9-----------9-----|
--------11-----------11--11--|--------7-----------7-----|
--9--9---9--9--9--9---9---9--|--0--0--0--0--0--0--0--0--|


  PM PM    PM PM PM          PM PM    PM PM PM    PM  
  E  E  E  E  E  E  E  E     E  E  E  E  E  E  E  E   
--------------------------|--------------------------|
--------------------------|--------------------------|
--------9-----------9--9--|--------------------------|
--------9-----------9--9--|--------9-----------9-----|
--------7-----------7--7--|--------9-----------9-----|
--0--0--0--0--0--0--0--0--|--7--7--7--7--7--7--7--7--|


  PM PM       PM PM          PM PM    PM PM PM    PM  
  E  E  E  E  E  E  E  E     E  E  E  E  E  E  E  E   
--------------------------|--------------------------|
--------------------------|--------4-----------4-----|
--------------------------|--------4-----------4-----|
--------9--9--------8--8--|--------4-----------4-----|
--------9--9--------9--9--|--------6-----------6-----|
--7--7--7--7--6--6--6--6--|--4--4--4--4--4--4--4--4--|


  PM PM    PM PM PM           PM PM     PM PM PM     PM  
  E  E  E  E  E  E  E  E      E  E   E  E  E  E   E  E   
---------------------------|----------------------------|
--------4-----------4--4/--|----------------------------|
--------4-----------4--4/--|---------9------------9-----|
--------4-----------4--4/--|---------9------------9-----|
--------6-----------6--6/--|--------11-----------11-----|
--4--4--4--4--4--4--4--4S--|--9--9---9--9--9--9---9--9--|


  PM PM     PM PM PM            PM PM    PM PM PM    PM  
  E  E   E  E  E  E   E   E     E  E  E  E  E  E  E  E   
-----------------------------|--------------------------|
-----------------------------|--------------------------|
---------9------------9---9--|--------9-----------9-----|
---------9------------9---9--|--------9-----------9-----|
--------11-----------11--11--|--------7-----------7-----|
--9--9---9--9--9--9---9---9--|--0--0--0--0--0--0--0--0--|


  PM PM    PM PM PM    PM    PM PM    PM PM PM    PM  
  E  E  E  E  E  E  E  E     E  E  E  E  E  E  E  E   
--------------------------|--------------------------|
--------------------------|--------------------------|
--------9-----------9-----|--------9-----------9-----|
--------9-----------9-----|--------9-----------9-----|
--------7-----------7-----|--------7-----------7-----|
--0--0--0--0--0--0--0--0--|--0--0--0--0--0--0--0--0--|


  PM PM    PM                                                                  
  E  E  E  E  E  E  E  E     E  E  E  E  E  Q    E     E  E  E  E  E  Q    E   
--------------------------|-------------------------|-------------------------|
--------------------------|-------------------------|-------------------------|
--------9-----9--9--9-----|-------------------------|-----------------4----4--|
--------9-----9--9--9-----|--6--6--6--6--x--2----2--|--4--4--4--4--x--4----4--|
--------7-----7--7--7-----|--6--6--6--6--x--2----2--|--4--4--4--4--x--2----2--|
--0--0--0--0--0--0--0--0--|--4--4--4--4--x--0----0--|--2--2--2--2--x--2----2--|


  E  E  E  E  E  E  E  E     E  E  E  E  E  E  E  E     E  E  E  E  E  Q    E   
--------------------------|--------------------------|-------------------------|
--------------4--4--4--4--|--------------------------|-------------------------|
--------------4--4--4--4--|--------------------------|-------------------------|
--6--6--6--6--4--4--4--4--|--4--4--4--4--4--4--4--4--|--6--6--6--6--x--2----2--|
--6--6--6--6--2--2--2--2--|--4--4--4--4--4--4--4--4--|--6--6--6--6--x--2----2--|
--4--4--4--4--0--0--0--0--|--2--2--2--2--2--2--2--2--|--4--4--4--4--x--0----0--|


                                                           PM PM PM             
  E  E  E  E  E  Q    E      E  E  E  E  E  E  E  E     E  E  E  E  E  Q    E   
--------------------------|--------------------------|-------------------------|
--------------------------|--------------4--4--4--4--|-------------------------|
-----------------4--------|--------------4--4--4--4--|-------------------------|
--4--4--4--4--x--4----4S--|--6--6--6--6--4--4--4--4--|--4-----------4----------|
--4--4--4--4--x--2----4S--|--6--6--6--6--2--2--2--2--|--4--4--4--4--4----------|
--2--2--2--2--x--2----2S--|--4--4--4--4--0--0--0--0--|--2--2--2--2--2----------|


  Q    Q    E  E  Q       Q    Q    E  E  Q       Q    Q    E  E  Q     
-----------------------|-----------------------|-----------------------|
-----------------------|-----------------------|-----------------------|
--4----4----x--x-------|-----------------------|-----------------------|
--4----4----x--x--4----|--2----2----x--x--4----|--6----6----x--x--4----|
--2----2----x--x--4----|--2----2----x--x--4----|--6----6----x--x--4----|
--2----2----x--x--2----|--0----0----x--x--2----|--4----4----x--x--2----|


  Q    E  E  E  Q    E     Q    Q    E  E  Q       Q    Q    E  E  Q     
------------------------|-----------------------|-----------------------|
------------------------|-----------------------|-----------------------|
------------------------|--4----4----x--x-------|-----------------------|
--2----x--x--x--4----x--|--4----4----x--x--4----|--2----2----x--x--4----|
--2----x--x--x--4----x--|--2----2----x--x--4----|--2----2----x--x--4----|
--0----x--x--x--2----x--|--2----2----x--x--2----|--0----0----x--x--2----|


  Q    Q    E  E  Q       Q    E  E  E  Q    E     Q    Q    E  E  Q     
-----------------------|------------------------|-----------------------|
-----------------------|------------------------|-----------------------|
-----------------------|------------------------|--4----4----x--x-------|
--6----6----x--x--4----|--2----x--x--x--4----x--|--4----4----x--x--4----|
--6----6----x--x--4----|--2----x--x--x--4----x--|--2----2----x--x--4----|
--4----4----x--x--2----|--0----x--x--x--2----x--|--2----2----x--x--2----|


  Q    Q    E  E  Q       Q    Q    E  E  Q       Q    E  E  E  Q    E   
-----------------------|-----------------------|------------------------|
-----------------------|-----------------------|------------------------|
-----------------------|-----------------------|------------------------|
--2----2----x--x--4----|--6----6----x--x--4----|--2----x--x--x--4----x--|
--2----2----x--x--4----|--6----6----x--x--4----|--2----x--x--x--4----x--|
--0----0----x--x--2----|--4----4----x--x--2----|--0----x--x--x--2----x--|


  Q    Q    E  E  Q       Q    Q    E  E  Q       Q    Q    E  E  Q     
-----------------------|-----------------------|-----------------------|
-----------------------|-----------------------|-----------------------|
--4----4----x--x-------|-----------------------|-----------------------|
--4----4----x--x--4----|--2----2----x--x--4----|--6----6----x--x--4----|
--2----2----x--x--4----|--2----2----x--x--4----|--6----6----x--x--4----|
--2----2----x--x--2----|--0----0----x--x--2----|--4----4----x--x--2----|


  Q    E  E  E  Q    E     E  E  E  E  E  Q    E     E  E  E  E  E  Q    E   
------------------------|-------------------------|-------------------------|
------------------------|-------------------------|-------------------------|
------------------------|-------------------------|-----------------4----4--|
--2----x--x--x--4----x--|--6--6--6--6--x--2----2--|--4--4--4--4--x--4----4--|
--2----x--x--x--4----x--|--6--6--6--6--x--2----2--|--4--4--4--4--x--2----2--|
--0----x--x--x--2----x--|--4--4--4--4--x--0----0--|--2--2--2--2--x--2----2--|


  E  E  E  E  E  E  E  E     E  E  E  E  E  E  E  E     E  E  E  E  E  Q    E   
--------------------------|--------------------------|-------------------------|
--------------4--4--4--4--|--------------------------|-------------------------|
--------------4--4--4--4--|--------------------------|-------------------------|
--6--6--6--6--4--4--4--4--|--4--4--4--4--4--4--4--4--|--6--6--6--6--x--2----2--|
--6--6--6--6--2--2--2--2--|--4--4--4--4--4--4--4--4--|--6--6--6--6--x--2----2--|
--4--4--4--4--0--0--0--0--|--2--2--2--2--2--2--2--2--|--4--4--4--4--x--0----0--|


  E  E  E  E  E  Q    E     E  E  E  E  E  E  E  E     E  E  E  E  Q    E  E   
-------------------------|--------------------------|-------------------------|
-------------------------|--------------4--4--4--4--|-------------------------|
-----------------4----4--|--------------4--4--4--4--|-------------------------|
--4--4--4--4--x--4----4--|--6--6--6--6--4--4--4--4--|--4--4--4--4--4----x--x--|
--4--4--4--4--x--2----2--|--6--6--6--6--2--2--2--2--|--4--4--4--4--4----x--x--|
--2--2--2--2--x--2----2--|--4--4--4--4--0--0--0--0--|--2--2--2--2--2----x--x--|


     PM PM    PM PM    PM    PM    PM PM    PM    PM  
  E  E  E  E  E  E  E  E     E  E  E  E  E  E  E  E   
--------------------------|--------------------------|
--5--------4--------2-----|-----5--------4-----2-----|
--4--4--4--4--4--4--4--4--|--4--4--4--4--4--4--4--4--|
--------------------------|--------------------------|
--------------------------|--------------------------|
--------------------------|--------------------------|


     PM PM    PM PM    PM    PM    PM PM    PM    PM   
  E  E  E  E  E  E  E  E     E  E  E  E  E  E  E  E    
--------------------------|---------------------------|
--5--------4--------2-----|-----5--------4-----2------|
--4--4--4--4--4--4--4--4--|--4--4--4--4--4--4--4--4S--|
--------------------------|---------------------------|
--------------------------|---------------------------|
--------------------------|---------------------------|


     PM PM    PM PM    PM    PM    PM PM    PM    PM  
  E  E  E  E  E  E  E  E     E  E  E  E  E  E  E  E   
--------------------------|--------------------------|
--5--------4--------2-----|-----5--------4-----2-----|
--4--4--4--4--4--4--4--4--|--4--4--4--4--4--4--4--4--|
--------------------------|--------------------------|
--------------------------|--------------------------|
--------------------------|--------------------------|


     PM PM    PM PM    PM    PM    PM PM    PM    PM  
  E  E  E  E  E  E  E  E     E  E  E  E  E  E  E  E   
--------------------------|--------------------------|
--5--------4--------2-----|-----5--------4-----2-----|
--4--4--4--4--4--4--4--4--|--4--4--4--4--4--4--4--4--|
--------------------------|--------------------------|
--------------------------|--------------------------|
--------------------------|--------------------------|


  PM PM    PM PM PM    PM    PM PM    PM PM PM         
  E  E  E  E  E  E  E  E     E  E  E  E  E  E  E  E    
--------------------------|---------------------------|
--------4-----------4-----|--------4-----------4--4/--|
--------4-----------4-----|--------4-----------4--4/--|
--------4-----------4-----|--------4-----------4--4/--|
--------6-----------6-----|--------6-----------6--6/--|
--4--4--4--4--4--4--4--4--|--4--4--4--4--4--4--4--4S--|


  PM PM     PM PM PM     PM    PM PM     PM PM PM          
  E  E   E  E  E  E   E  E     E  E   E  E  E  E   E   E   
----------------------------|-----------------------------|
----------------------------|-----------------------------|
---------9------------9-----|---------9------------9---9--|
---------9------------9-----|---------9------------9---9--|
--------11-----------11-----|--------11-----------11--11--|
--9--9---9--9--9--9---9--9--|--9--9---9--9--9--9---9---9--|


  E  E  E  E  E  E  E  E     E  E  E  E  E  E  E  E   
--------------------------|--------------------------|
--------------------------|--------------------------|
--------9-----------9-----|--------9-----------9-----|
--------9-----------9-----|--------9-----------9-----|
--------7-----------7-----|--------7-----------7-----|
--0--0--0--0--0--0--0--0--|--0--0--0--0--0--0--0--0--|


     PM PM PM PM PM PM PM                                                       
  E  E  E  E  E  E  E  E     E  E  E  E  E  E  E  E     E  E  E  E  E  Q    E   
--------------------------|--------------------------|-------------------------|
--------------------------|--------------------------|-------------------------|
--9-----------------------|--9--9--9--9--9--9--9-----|-------------------------|
--9-----------------------|--9--9--9--9--9--9--9-----|--6--6--6--6--x--2----2--|
--7--7--7--7--7--7--7--7--|--7--7--7--7--7--7--7-----|--6--6--6--6--x--2----2--|
--0--0--0--0--0--0--0--0--|--0--0--0--0--0--0--0--0--|--4--4--4--4--x--0----0--|


  E  E  E  E  E  Q    E     E  E  E  E  E  E  E  E     E  E  E  E  E  E  E  E   
-------------------------|--------------------------|--------------------------|
-------------------------|--------------4--4--4--4--|--------------------------|
-----------------4----4--|--------------4--4--4--4--|--------------------------|
--4--4--4--4--x--4----4--|--6--6--6--6--4--4--4--4--|--4--4--4--4--4--4--4--4--|
--4--4--4--4--x--2----2--|--6--6--6--6--2--2--2--2--|--4--4--4--4--4--4--4--4--|
--2--2--2--2--x--2----2--|--4--4--4--4--0--0--0--0--|--2--2--2--2--2--2--2--2--|


  E  E  E  E  E  Q    E     E  E  E  E  E  Q    E      E  E  E  E  E  E  E  E   
-------------------------|--------------------------|--------------------------|
-------------------------|--------------------------|--------------4--4--4--4--|
-------------------------|-----------------4--------|--------------4--4--4--4--|
--6--6--6--6--x--2----2--|--4--4--4--4--x--4----4S--|--6--6--6--6--4--4--4--4--|
--6--6--6--6--x--2----2--|--4--4--4--4--x--2----4S--|--6--6--6--6--2--2--2--2--|
--4--4--4--4--x--0----0--|--2--2--2--2--x--2----2S--|--4--4--4--4--0--0--0--0--|


     PM PM PM                                                             
  E  E  E  E  E  Q    E     Q    Q    E  E  Q       Q    Q    E  E  Q     
-------------------------|-----------------------|-----------------------|
-------------------------|-----------------------|-----------------------|
-------------------------|--4----4----x--x-------|-----------------------|
--4-----------4----------|--4----4----x--x--4----|--2----2----x--x--4----|
--4--4--4--4--4----------|--2----2----x--x--4----|--2----2----x--x--4----|
--2--2--2--2--2----------|--2----2----x--x--2----|--0----0----x--x--2----|


  Q    Q    E  E  Q       Q    E  E  E  Q    E     Q    Q    E  E  Q     
-----------------------|------------------------|-----------------------|
-----------------------|------------------------|-----------------------|
-----------------------|------------------------|--4----4----x--x-------|
--6----6----x--x--4----|--2----x--x--x--4----x--|--4----4----x--x--4----|
--6----6----x--x--4----|--2----x--x--x--4----x--|--2----2----x--x--4----|
--4----4----x--x--2----|--0----x--x--x--2----x--|--2----2----x--x--2----|


  Q    Q    E  E  Q       Q    Q    E  E  Q       Q    E  E  E  Q    E   
-----------------------|-----------------------|------------------------|
-----------------------|-----------------------|------------------------|
-----------------------|-----------------------|------------------------|
--2----2----x--x--4----|--6----6----x--x--4----|--2----x--x--x--4----x--|
--2----2----x--x--4----|--6----6----x--x--4----|--2----x--x--x--4----x--|
--0----0----x--x--2----|--4----4----x--x--2----|--0----x--x--x--2----x--|


  Q    Q    E  E  Q       Q    Q    E  E  Q       Q    Q    E  E  Q     
-----------------------|-----------------------|-----------------------|
-----------------------|-----------------------|-----------------------|
--4----4----x--x-------|-----------------------|-----------------------|
--4----4----x--x--4----|--2----2----x--x--4----|--6----6----x--x--4----|
--2----2----x--x--4----|--2----2----x--x--4----|--6----6----x--x--4----|
--2----2----x--x--2----|--0----0----x--x--2----|--4----4----x--x--2----|


  Q    E  E  E  Q    E     Q    Q    E  E  Q       Q    Q    E  E  Q     
------------------------|-----------------------|-----------------------|
------------------------|-----------------------|-----------------------|
------------------------|--4----4----x--x-------|-----------------------|
--2----x--x--x--4----x--|--4----4----x--x--4----|--2----2----x--x--4----|
--2----x--x--x--4----x--|--2----2----x--x--4----|--2----2----x--x--4----|
--0----x--x--x--2----x--|--2----2----x--x--2----|--0----0----x--x--2----|


                                                  PM PM PM PM PM PM PM PM  
  Q    Q    E  E  Q       Q    E  E  E  Q.        E  E  E  E  E  E  E  E   
-----------------------|-----------------------|--------------------------|
-----------------------|-----------------------|--------------------------|
-----------------------|-----------------------|--------------------------|
--6----6----x--x--4----|--2----x--x--x--4------|--------------------------|
--6----6----x--x--4----|--2----x--x--x--4------|--------------------------|
--4----4----x--x--2----|--0----x--x--x--2------|--4--4--4--4--4--4--4--4--|


  PM PM PM PM PM PM PM PM     PM PM PM PM PM PM PM PM  
  E  E  E  E  E  E  E  E      E  E  E  E  E  E  E  E   
---------------------------|--------------------------|
---------------------------|--------------------------|
---------------------------|--------------------------|
---------------------------|--------------------------|
---------------------------|--7--8--8--8--8--8--8--8--|
--4--4--4--4--4--4--4--4S--|--8--9--9--9--9--9--9--9--|


  PM PM PM PM PM PM PM       PM PM PM PM PM PM PM PM  
  E  E  E  E  E  E  E  E     E  E  E  E  E  E  E  E   
--------------------------|--------------------------|
--------------------------|--------------------------|
--------------------------|--------------------------|
--------------------------|--------------------------|
--8--8--8--8--8--8--8--7--|--7--7--7--7--7--7--7--7--|
--9--9--9--9--9--9--9--0--|--0--0--0--0--0--0--0--0--|


  PM PM PM PM PM PM PM PM    PM PM PM PM PM PM PM PM  
  E  E  E  E  E  E  E  E     E  E  E  E  E  E  E  E   
--------------------------|--------------------------|
--------------------------|--------------------------|
--------------------------|--------------------------|
--------------------------|--------------------------|
--7--7--7--7--7--7--7--7--|--9--9--9--9--9--9--9--9--|
--0--0--0--0--0--0--0--0--|--7--7--7--7--7--7--7--7--|


  PM PM PM PM PM PM PM PM    PM PM PM PM PM PM PM PM  
  E  E  E  E  E  E  E  E     E  E  E  E  E  E  E  E   
--------------------------|--------------------------|
--------------------------|--------------------------|
--------------------------|--------------------------|
--------------------------|--------------------------|
--9--9--9--9--9--9--9--9--|--------------------------|
--7--7--7--7--6--6--6--6--|--4--4--4--4--4--4--4--4--|


  PM PM PM PM PM PM PM PM     PM PM PM PM PM PM PM PM  
  E  E  E  E  E  E  E  E      E  E  E  E  E  E  E  E   
---------------------------|--------------------------|
---------------------------|--------------------------|
---------------------------|--------------------------|
---------------------------|--------------------------|
---------------------------|--8--8--8--8--8--8--8--8--|
--4--4--4--4--4--4--4--4S--|--9--9--9--9--9--9--9--9--|


  PM PM PM PM PM PM PM PM    PM PM PM PM PM PM PM PM  
  E  E  E  E  E  E  E  E     E  E  E  E  E  E  E  E   
--------------------------|--------------------------|
--------------------------|--------------------------|
--------------------------|--------------------------|
--------------------------|--------------------------|
--8--8--8--8--8--8--8--8--|--7--7--7--7--7--7--7--7--|
--9--9--9--9--9--9--9--9--|--0--0--0--0--0--0--0--0--|


  PM PM PM PM PM PM PM PM    >  PM PM PM >  PM PM PM  
  E  E  E  E  E  E  E  E     E  E  E  E  E  E  E  E   
--------------------------|--------------------------|
--------------------------|--------------------------|
--------------------------|--------------------------|
--------------------------|--9-----------9-----------|
--7--7--7--7--7--7--7--7--|--7--7--7--7--7--7--7--7--|
--0--0--0--0--0--0--0--0--|--0--0--0--0--0--0--0--0--|


  >  PM PM PM >  PM PM PM                                               
  E  E  E  E  E  E  E  E     E  E  H.              E  E  Q.     Q.      
--------------------------|--4--4---------------|----------------------|
--------------------------|--4--4---------------|----------------------|
--------------------------|--4--4---------------|---------------4------|
--9-----------9-----------|--6--6---------------|--4--4---------4------|
--7--7--7--7--7--7--7--7--|--6--6---------------|--4--4---------2------|
--0--0--0--0--0--0--0--0--|--4--4---------------|--2--2---------2------|


  E  E  E  E  E  E  E  E     E  E  E  E  E  E  E  E     E  E  E  E  E  Q    E   
--------------------------|--------------------------|-------------------------|
--------------4--4--4--4--|--------------------------|-------------------------|
--------------4--4--4--4--|--------------------------|-------------------------|
--6--6--6--6--4--4--4--4--|--4--4--4--4--x--x--x--x--|--6--6--6--6--x--2----2--|
--6--6--6--6--2--2--2--2--|--4--4--4--4--x--x--x--x--|--6--6--6--6--x--2----2--|
--4--4--4--4--0--0--0--0--|--2--2--2--2--x--x--x--x--|--4--4--4--4--x--0----0--|


  E  E  E  E  E  Q    E     E  E  E  E  E  E  E  E     E  E  E  E  E  E  E  E   
-------------------------|--------------------------|--------------------------|
-------------------------|--------------4--4--4--4--|--------------------------|
-----------------4----4--|--------------4--4--4--4--|--------------------------|
--4--4--4--4--x--4----4--|--6--6--6--6--4--4--4--4--|--4--4--4--4--4--4--4--4--|
--4--4--4--4--x--2----2--|--6--6--6--6--2--2--2--2--|--4--4--4--4--4--4--4--4--|
--2--2--2--2--x--2----2--|--4--4--4--4--0--0--0--0--|--2--2--2--2--2--2--2--2--|


  E  E  E  E  E  Q    E     E  E  E  E  E  Q    E     E  E  E  E  E  E  E  E   
-------------------------|-------------------------|--------------------------|
-------------------------|-------------------------|--------------4--4--4--4--|
-------------------------|-----------------4----4--|--------------4--4--4--4--|
--6--6--6--6--x--2----2--|--4--4--4--4--x--4----4--|--6--6--6--6--4--4--4--4--|
--6--6--6--6--x--2----2--|--4--4--4--4--x--2----2--|--6--6--6--6--2--2--2--2--|
--4--4--4--4--x--0----0--|--2--2--2--2--x--2----2--|--4--4--4--4--0--0--0--0--|


  E  E  E  E  E  E  E  E     E  E  E  E  E  Q    E     E  E  E  E  E  Q    E    
--------------------------|-------------------------|--------------------------|
--------------------------|-------------------------|--------------------------|
--------------------------|-------------------------|-----------------4--------|
--4--4--4--4--4--4--4--4--|--6--6--6--6--x--2----2--|--4--4--4--4--x--4----4S--|
--4--4--4--4--4--4--4--4--|--6--6--6--6--x--2----2--|--4--4--4--4--x--2----4S--|
--2--2--2--2--2--2--2--2--|--4--4--4--4--x--0----0--|--2--2--2--2--x--2----2S--|

                                                     Acoustic Part
                                PM PM PM                                     
  E  E  E  E  E  E  E  E     E  E  E  E  E  Q    E     Q    Q    E  E  Q     
--------------------------|-------------------------|-----------------------|
--------------4--4--4--4--|-------------------------|-----------------------|
--------------4--4--4--4--|-------------------------|--4----4----x--x-------|
--6--6--6--6--4--4--4--4--|--4-----------4----------|--4----4----x--x--4----|
--6--6--6--6--2--2--2--2--|--4--4--4--4--4----------|--2----2----x--x--4----|
--4--4--4--4--0--0--0--0--|--2--2--2--2--2----------|--2----2----x--x--2----|


                                                        PM PM PM          
  Q    Q    E  E  Q        Q    Q    E  E  Q       Q    E  E  E  Q    E   
------------------------|-----------------------|------------------------|
------------------------|-----------------------|------------------------|
------------------------|-----------------------|------------------------|
--2----2----x--x--4S----|--6----6----x--x--4----|--2-------------4-------|
--2----2----x--x--4S----|--6----6----x--x--4----|--2----2--2--2--4----2--|
--0----0----x--x--2S----|--4----4----x--x--2----|--0----0--0--0--2----0--|


  Q    Q    E  E  Q       Q    Q    E  E  Q        Q    Q    E  E  Q     
-----------------------|------------------------|-----------------------|
-----------------------|------------------------|-----------------------|
--4----4----x--x-------|------------------------|-----------------------|
--4----4----x--x--4----|--2----2----x--x--4S----|--6----6----x--x--4----|
--2----2----x--x--4----|--2----2----x--x--4S----|--6----6----x--x--4----|
--2----2----x--x--2----|--0----0----x--x--2S----|--4----4----x--x--2----|


  Q    Q    Q    Q              
----------------------|-------||
----------------------|-------||
----------------------|-------||
--2----2----2---------|-------||
--2----2----2---------|-------||
--0----0----0---------|-------||




Duration Legend
---------------
W - whole
H - half
Q - quarter
E - 8th
S - 16th
T - 32nd
X - 64th
. - note dotted
|-n-|  - n-tuplets


Tablature Legend
----------------
L - tied note
x - dead note
g - grace note
(n) - ghost note
> - accentuded note
NH - natural harmonic
AH - artificial harmonic
TH - tapped harmonic
SH - semi harmonic
PH - pitch harmonic
h - hammer on
p - pull off
b - bend
br - bendRelease
pb - preBend
pbr - preBendRelease
brb - bendReleaseBend
\n/ - tremolo bar dip
\n - tremolo bar dive
-/n - tremolo bar Release up
/n\ - tremolo bar inverted dip
/n - tremolo bar return
-\n - tremolo bar Release down
S - shift slide
s - legato slide
/ -  slide into from below or out of upwards
\ -  slide into from above or out of downwards
~ - vibrato
W - wide vibrato
tr - trill
TP - tremolo picking
T - tapping
S - slap
P - pop
< - fade in
^ - brush up
v - brush down




                         7 Minutes in Heaven                               


                                                                    Fall Out Boy
Guitar Two(See Guitar Three After This Part)



                                      E   E   E   E  E  Q    E    
E||-------|-------|-------|-------|------------------------------|
B||-------|-------|-------|-------|------------------------------|
G||-------|-------|-------|-------|--11--11--11--11--x--8----8S--|
D||-------|-------|-------|-------|---x---x---x---x--x--x----x---|
A||-------|-------|-------|-------|---9---9---9---9--x--6----6S--|
E||-------|-------|-------|-------|------------------------------|


  E  E  E  E  E  E  Q         E   E   E   E   E  E  E  E    
--------------------------|--------------------------------|
--------------------------|--------------------------------|
--6--6--6--6--x--4--4S----|--11--11--11--11S--8--8--8--8S--|
--x--x--x--x--x--x--x-----|---x---x---x---x---x--x--x--x---|
--4--4--4--4--x--2--2S----|---9---9---9---9S--6--6--6--6S--|
--------------------------|--------------------------------|


  E  E  E   E  Q    E  E      E   E   E   E  E  Q    E    
--------------------------|------------------------------|
--------------------------|------------------------------|
--6--6--6s--8--6----6--6--|--11--11--11--11--x--8----8S--|
--x--x--x---x--x----x--x--|---x---x---x---x--x--x----x---|
--4--4--4s--6--4----4--4--|---9---9---9---9--x--6----6S--|
--------------------------|------------------------------|

[ Tab from: http://www.guitartabs.cc/tabs/f/fall_out_boy/7_minutes_in_heaven_atavan_halen_tab_ver_4.html ]
  E  E  E  E  E  E  Q         E   E   E   E   E  E  E  E    
--------------------------|--------------------------------|
--------------------------|--------------------------------|
--6--6--6--6--x--4--4S----|--11--11--11--11S--8--8--8--8S--|
--x--x--x--x--x--x--x-----|---x---x---x---x---x--x--x--x---|
--4--4--4--4--x--2--2S----|---9---9---9---9S--6--6--6--6S--|
--------------------------|--------------------------------|


  E  E  E   E  Q     Q                         E  E  E  E  Q    E  E   
----------------------------|-------|-------|-------------------------|
----------------------------|-------|-------|--5-----5--4-------2-----|
--6--6--6s--8--6----(6)\----|-------|-------|--4-----4--4-------4-----|
--x--x--x---x--x------------|-------|-------|-------------------------|
--4--4--4s--6--4----(4)\----|-------|-------|-------------------------|
----------------------------|-------|-------|-------------------------|


  E  E  E  E  E  E  Q                        E  E  E  E  Q    E  E   
--------------------------|-------|-------|-------------------------|
-----5--5-----4-----2\----|-------|-------|--5-----5--4-------2-----|
-----4--4-----4-----4\----|-------|-------|--4-----4--4-------4-----|
--------------------------|-------|-------|-------------------------|
--------------------------|-------|-------|-------------------------|
--------------------------|-------|-------|-------------------------|


  E  E  E  E  E  E  Q                        E  E  E  E  Q    E  E   
--------------------------|-------|-------|-------------------------|
-----5--5-----4-----2\----|-------|-------|--5-----5--4-------2-----|
-----4--4-----4-----4\----|-------|-------|--4-----4--4-------4-----|
--------------------------|-------|-------|-------------------------|
--------------------------|-------|-------|-------------------------|
--------------------------|-------|-------|-------------------------|


  E  E  E  E  E  E  Q                              E  E  E  E  E  E  E  E    
--------------------------|-------|-------|-----|---------------------------|
-----5--5-----4-----2\----|-------|-------|-----|---------------------------|
-----4--4-----4-----4\----|-------|-------|-----|-----------------------6S--|
--------------------------|-------|-------|-----|-----------------------x---|
--------------------------|-------|-------|-----|-----------------------4S--|
--------------------------|-------|-------|-----|---------------------------|


   E   E   E   E  E  Q    E      E  E  E  E  E  E  Q      
------------------------------|--------------------------|
------------------------------|--------------------------|
--11--11--11--11--x--8----8S--|--6--6--6--6--x--4--4S----|
---x---x---x---x--x--x----x---|--x--x--x--x--x--x--x-----|
---9---9---9---9--x--6----6S--|--4--4--4--4--x--2--2S----|
------------------------------|--------------------------|


   E   E   E   E   E  E  E  E      E  E  E   E  Q    E  E                     
--------------------------------|--------------------------|-----|-----|-----|
--------------------------------|--------------------------|-----|-----|-----|
--11--11--11--11S--8--8--8--8S--|--6--6--6s--8--6----6--6--|-----|-----|-----|
---x---x---x---x---x--x--x--x---|--x--x--x---x--x----x--x--|-----|-----|-----|
---9---9---9---9S--6--6--6--6S--|--4--4--4s--6--4----4--4--|-----|-----|-----|
--------------------------------|--------------------------|-----|-----|-----|


        Q    Q    E  E  Q       Q    Q    E  E  Q       Q    Q    E  E  Q     
-----|-----------------------|-----------------------|-----------------------|
-----|-----------------------|-----------------------|-----------------------|
-----|--4----4----x--x--6----|--8----8----x--x--3----|--4----4----x--x--6----|
-----|--x----x----x--x--x----|--x----x----x--x--x----|--x----x----x--x--x----|
-----|--2----2----x--x--4----|--6----6----x--x--1----|--2----2----x--x--4----|
-----|-----------------------|-----------------------|-----------------------|


  E  E  E  E  E   E   Q        Q    Q    E  E  Q       Q    Q    E  E  Q     
----------------------------|-----------------------|-----------------------|
----------------------------|-----------------------|-----------------------|
--8--8--8--8--x--11--11S----|--4----4----x--x--6----|--8----8----x--x--3----|
--x--x--x--x--x---x---x-----|--x----x----x--x--x----|--x----x----x--x--x----|
--6--6--6--6--x---9---9S----|--2----2----x--x--4----|--6----6----x--x--1----|
----------------------------|-----------------------|-----------------------|


  Q    Q    E  E  Q       E  E  E  E  E   E   Q        Q    Q    E  E  Q     
-----------------------|----------------------------|-----------------------|
-----------------------|----------------------------|-----------------------|
--4----4----x--x--6----|--8--8--8--8--x--11--11\----|--4----4----x--x--6----|
--x----x----x--x--x----|--x--x--x--x--x---x---x-----|--x----x----x--x--x----|
--2----2----x--x--4----|--6--6--6--6--x---9---9\----|--2----2----x--x--4----|
-----------------------|----------------------------|-----------------------|


  Q    Q    E  E  Q       Q    Q    E  E  Q       E  E  E  E  E   E   Q      
-----------------------|-----------------------|----------------------------|
-----------------------|-----------------------|----------------------------|
--8----8----x--x--3----|--4----4----x--x--6----|--8--8--8--8--x--11--11\----|
--x----x----x--x--x----|--x----x----x--x--x----|--x--x--x--x--x---x---x-----|
--6----6----x--x--1----|--2----2----x--x--4----|--6--6--6--6--x---9---9\----|
-----------------------|-----------------------|----------------------------|


  Q    Q    E  E  Q       Q    Q    E  E  Q       Q    Q    E  E  Q     
-----------------------|-----------------------|-----------------------|
-----------------------|-----------------------|-----------------------|
--4----4----x--x--6----|--8----8----x--x--3----|--4----4----x--x--6----|
--x----x----x--x--x----|--x----x----x--x--x----|--x----x----x--x--x----|
--2----2----x--x--4----|--6----6----x--x--1----|--2----2----x--x--4----|
-----------------------|-----------------------|-----------------------|


  E  E  E  E  E  E   Q        E   E   E   E  E  Q    E    
--------------------------|------------------------------|
--------------------------|------------------------------|
--8--8--8--8--x--6S--4----|--11--11--11--11--x--8----8S--|
--x--x--x--x--x--x---x----|---x---x---x---x--x--x----x---|
--6--6--6--6--x--4S--2----|---9---9---9---9--x--6----6S--|
--------------------------|------------------------------|


  E  E  E  E  E  E  Q         E   E   E   E   E  E  E  E    
--------------------------|--------------------------------|
--------------------------|--------------------------------|
--6--6--6--6--x--4--4S----|--11--11--11--11S--8--8--8--8S--|
--x--x--x--x--x--x--x-----|---x---x---x---x---x--x--x--x---|
--4--4--4--4--x--2--2S----|---9---9---9---9S--6--6--6--6S--|
--------------------------|--------------------------------|


  E  E  E   E  Q    E  E      E   E   E   E  E  Q    E    
--------------------------|------------------------------|
--------------------------|------------------------------|
--6--6--6s--8--6----6--6--|--11--11--11--11--x--8----8S--|
--x--x--x---x--x----x--x--|---x---x---x---x--x--x----x---|
--6--6--4s--6--4----4--4--|---9---9---9---9--x--6----6S--|
--------------------------|------------------------------|


  E  E  E  E  E  E  Q         E   E   E   E   E  E  E  E    
--------------------------|--------------------------------|
--------------------------|--------------------------------|
--6--6--6--6--x--4--4S----|--11--11--11--11S--8--8--8--8S--|
--x--x--x--x--x--x--x-----|---x---x---x---x---x--x--x--x---|
--4--4--4--4--x--2--2S----|---9---9---9---9S--6--6--6--6S--|
--------------------------|--------------------------------|


  E  E  E   E  Q    E  E                                                   
--------------------------|-----------|-----------|-----------|-----------|
--------------------------|-----------|-----------|-----------|-----------|
--6--6--6s--8--6----6--6--|-----------|-----------|-----------|-----------|
--x--x--x---x--x----x--x--|-----------|-----------|-----------|-----------|
--6--6--4s--6--4----4--4--|-----------|-----------|-----------|-----------|
--------------------------|-----------|-----------|-----------|-----------|


                                      H.            Q                  
-----------|-----------|-----------|----------------------|-----------|
-----------|-----------|-----------|----------------------|-----------|
-----------|-----------|-----------|----------------------|-----------|
-----------|-----------|-----------|----------------------|-----------|
-----------|-----------|-----------|----------------------|-----------|
-----------|-----------|-----------|---------------14\----|-----------|


-----------|-----------|-----------|-----------|-----------|-----|-----|
-----------|-----------|-----------|-----------|-----------|-----|-----|
-----------|-----------|-----------|-----------|-----------|-----|-----|
-----------|-----------|-----------|-----------|-----------|-----|-----|
-----------|-----------|-----------|-----------|-----------|-----|-----|
-----------|-----------|-----------|-----------|-----------|-----|-----|


   E   E   E   E  E  Q    E      E  E  E  E  E  E  Q      
------------------------------|--------------------------|
------------------------------|--------------------------|
--11--11--11--11--x--8----8S--|--6--6--6--6--x--4--4S----|
---x---x---x---x--x--x----x---|--x--x--x--x--x--x--x-----|
---9---9---9---9--x--6----6S--|--4--4--4--4--x--2--2S----|
------------------------------|--------------------------|


   E   E   E   E   E  E  E  E      E  E  E   E  Q    E  E                     
--------------------------------|--------------------------|-----|-----|-----|
--------------------------------|--------------------------|-----|-----|-----|
--11--11--11--11S--8--8--8--8S--|--6--6--6s--8--6----6--6--|-----|-----|-----|
---x---x---x---x---x--x--x--x---|--x--x--x---x--x----x--x--|-----|-----|-----|
---9---9---9---9S--6--6--6--6S--|--6--6--4s--6--4----4--4--|-----|-----|-----|
--------------------------------|--------------------------|-----|-----|-----|


        Q    Q    E  E  Q       Q    Q    E  E  Q       Q    Q    E  E  Q     
-----|-----------------------|-----------------------|-----------------------|
-----|-----------------------|-----------------------|-----------------------|
-----|--4----4----x--x--6----|--8----8----x--x--3----|--4----4----x--x--6----|
-----|--x----x----x--x--x----|--x----x----x--x--x----|--x----x----x--x--x----|
-----|--2----2----x--x--4----|--6----6----x--x--1----|--2----2----x--x--4----|
-----|-----------------------|-----------------------|-----------------------|


  E  E  E  E  E   E   Q        Q    Q    E  E  Q       Q    Q    E  E  Q     
----------------------------|-----------------------|-----------------------|
----------------------------|-----------------------|-----------------------|
--8--8--8--8--x--11--11S----|--4----4----x--x--6----|--8----8----x--x--3----|
--x--x--x--x--x---x---x-----|--x----x----x--x--x----|--x----x----x--x--x----|
--6--6--6--6--x---9---9S----|--2----2----x--x--4----|--6----6----x--x--1----|
----------------------------|-----------------------|-----------------------|


  Q    Q    E  E  Q       E  E  E  E  E   E   Q        Q    Q    E  E  Q     
-----------------------|----------------------------|-----------------------|
-----------------------|----------------------------|-----------------------|
--4----4----x--x--6----|--8--8--8--8--x--11--11\----|--4----4----x--x--6----|
--x----x----x--x--x----|--x--x--x--x--x---x---x-----|--x----x----x--x--x----|
--2----2----x--x--4----|--6--6--6--6--x---9---9\----|--2----2----x--x--4----|
-----------------------|----------------------------|-----------------------|


  Q    Q    E  E  Q       Q    Q    E  E  Q       E  E  E  E  E   E   Q      
-----------------------|-----------------------|----------------------------|
-----------------------|-----------------------|----------------------------|
--8----8----x--x--3----|--4----4----x--x--6----|--8--8--8--8--x--11--11\----|
--x----x----x--x--x----|--x----x----x--x--x----|--x--x--x--x--x---x---x-----|
--6----6----x--x--1----|--2----2----x--x--4----|--6--6--6--6--x---9---9\----|
-----------------------|-----------------------|----------------------------|


  Q    Q    E  E  Q       Q    Q    E  E  Q       Q    Q    E  E   Q     
-----------------------|-----------------------|------------------------|
-----------------------|-----------------------|------------------------|
--4----4----x--x--6----|--8----8----x--x--3----|--4----4----x--x---6----|
--x----x----x--x--x----|--x----x----x--x--x----|--x----x----x--x---x----|
--2----2----x--x--4----|--6----6----x--x--1----|--2----2----x--x---4----|
-----------------------|-----------------------|------------------------|


  E  E  E  E  E   E    Q                                                       
------------------------------|-------|-------|-------|-------|-------|-------|
------------------------------|-------|-------|-------|-------|-------|-------|
--8--8--8--8--x--11--(11)\----|-------|-------|-------|-------|-------|-------|
--x--x--x--x--x---x-----------|-------|-------|-------|-------|-------|-------|
--6--6--6--6--x---9---(9)\----|-------|-------|-------|-------|-------|-------|
------------------------------|-------|-------|-------|-------|-------|-------|


                  E  E  H.                                                    
-------|-------|---------------------|-------|-------|-------|-------|-------|
-------|-------|--4--4---------------|-------|-------|-------|-------|-------|
-------|-------|--4--4---------------|-------|-------|-------|-------|-------|
-------|-------|--6--6---------------|-------|-------|-------|-------|-------|
-------|-------|---------------------|-------|-------|-------|-------|-------|
-------|-------|---------------------|-------|-------|-------|-------|-------|


-------|-------|-------|-------|-------|-------|-------|-------|-------|-------|
-------|-------|-------|-------|-------|-------|-------|-------|-------|-------|
-------|-------|-------|-------|-------|-------|-------|-------|-------|-------|
-------|-------|-------|-------|-------|-------|-------|-------|-------|-------|
-------|-------|-------|-------|-------|-------|-------|-------|-------|-------|
-------|-------|-------|-------|-------|-------|-------|-------|-------|-------|


-------|-------|-------|-------|-------|-------|-------|-------|-------|-------|
-------|-------|-------|-------|-------|-------|-------|-------|-------|-------|
-------|-------|-------|-------|-------|-------|-------|-------|-------|-------|
-------|-------|-------|-------|-------|-------|-------|-------|-------|-------|
-------|-------|-------|-------|-------|-------|-------|-------|-------|-------|
-------|-------|-------|-------|-------|-------|-------|-------|-------|-------|


-------|-------|-------|-------|-------|-------|-------||
-------|-------|-------|-------|-------|-------|-------||
-------|-------|-------|-------|-------|-------|-------||
-------|-------|-------|-------|-------|-------|-------||
-------|-------|-------|-------|-------|-------|-------||
-------|-------|-------|-------|-------|-------|-------||




Duration Legend
---------------
W - whole
H - half
Q - quarter
E - 8th
S - 16th
T - 32nd
X - 64th
. - note dotted
|-n-|  - n-tuplets


Tablature Legend
----------------
L - tied note
x - dead note
g - grace note
(n) - ghost note
> - accentuded note
NH - natural harmonic
AH - artificial harmonic
TH - tapped harmonic
SH - semi harmonic
PH - pitch harmonic
h - hammer on
p - pull off
b - bend
br - bendRelease
pb - preBend
pbr - preBendRelease
brb - bendReleaseBend
\n/ - tremolo bar dip
\n - tremolo bar dive
-/n - tremolo bar Release up
/n\ - tremolo bar inverted dip
/n - tremolo bar return
-\n - tremolo bar Release down
S - shift slide
s - legato slide
/ -  slide into from below or out of upwards
\ -  slide into from above or out of downwards
~ - vibrato
W - wide vibrato
tr - trill
TP - tremolo picking
T - tapping
S - slap
P - pop
< - fade in
^ - brush up
v - brush down

                              7 Minutes in Heaven                               


                                                                    Fall Out Boy
Guitar Three



                             Q    Q    Q    E  E   
E||-------|-------|-------|-----------------------|
B||-------|-------|-------|-----------------------|
G||-------|-------|-------|--------------------6--|
D||-------|-------|-------|--------------------x--|
A||-------|-------|-------|--------------------4--|
E||-------|-------|-------|-----------------------|


   E   E   E   E  E  Q    E      E  E  E  E  E  E  Q      
------------------------------|--------------------------|
------------------------------|--------------------------|
--11--11--11--11--x--8----8S--|--6--6--6--6--x--4--4S----|
---x---x---x---x--x--x----x---|--x--x--x--x--x--x--x-----|
---9---9---9---9--x--6----6S--|--4--4--4--4--x--2--2S----|
------------------------------|--------------------------|


   E   E   E   E   E  E  E  E      E  E  E   E  Q    E  E   
--------------------------------|--------------------------|
--------------------------------|--------------------------|
--11--11--11--11S--8--8--8--8S--|--6--6--6s--8--6----6--6--|
---x---x---x---x---x--x--x--x---|--x--x--x---x--x----x--x--|
---9---9---9---9S--6--6--6--6S--|--4--4--4s--6--4----4--4--|
--------------------------------|--------------------------|


   E   E   E   E  E  Q    E      E  E  E  E  E  E  Q      
------------------------------|--------------------------|
------------------------------|--------------------------|
--11--11--11--11--x--8----8S--|--6--6--6--6--x--4--4S----|
---x---x---x---x--x--x----x---|--x--x--x--x--x--x--x-----|
---9---9---9---9--x--6----6S--|--4--4--4--4--x--2--2S----|
------------------------------|--------------------------|


   E   E   E   E   E  E  E  E      E  E  E   E  Q     Q                       
--------------------------------|----------------------------|-------|-------|
--------------------------------|----------------------------|-------|-------|
--11--11--11--11S--8--8--8--8S--|--6--6--6s--8--6----(6)\----|-------|-------|
---x---x---x---x---x--x--x--x---|--x--x--x---x--x------------|-------|-------|
---9---9---9---9S--6--6--6--6S--|--4--4--4s--6--4----(4)\----|-------|-------|
--------------------------------|----------------------------|-------|-------|


-------|-------|-------|-------|-------|-------|-------|-------|-------|-------|
-------|-------|-------|-------|-------|-------|-------|-------|-------|-------|
-------|-------|-------|-------|-------|-------|-------|-------|-------|-------|
-------|-------|-------|-------|-------|-------|-------|-------|-------|-------|
-------|-------|-------|-------|-------|-------|-------|-------|-------|-------|
-------|-------|-------|-------|-------|-------|-------|-------|-------|-------|


                                   E   E   E   E  E  Q    E    
-------|-------|-------|-------|------------------------------|
-------|-------|-------|-------|------------------------------|
-------|-------|-------|-------|--11--11--11--11--x--8----8S--|
-------|-------|-------|-------|---x---x---x---x--x--x----x---|
-------|-------|-------|-------|---9---9---9---9--x--6----6S--|
-------|-------|-------|-------|------------------------------|


  E  E  E  E  E  E  Q         E   E   E   E   E  E  E  E    
--------------------------|--------------------------------|
--------------------------|--------------------------------|
--6--6--6--6--x--4--4S----|--11--11--11--11S--8--8--8--8S--|
--x--x--x--x--x--x--x-----|---x---x---x---x---x--x--x--x---|
--4--4--4--4--x--2--2S----|---9---9---9---9S--6--6--6--6S--|
--------------------------|--------------------------------|


  E  E  E   E  Q    E  E      E   E   E   E  E  Q    E    
--------------------------|------------------------------|
--------------------------|------------------------------|
--6--6--6s--8--6----6--6--|--11--11--11--11--x--8----8S--|
--x--x--x---x--x----x--x--|---x---x---x---x--x--x----x---|
--4--4--4s--6--4----4--4--|---9---9---9---9--x--6----6S--|
--------------------------|------------------------------|


  E  E  E  E  E  E  Q         E   E   E   E   E  E  E  E    
--------------------------|--------------------------------|
--------------------------|--------------------------------|
--6--6--6--6--x--4--4S----|--11--11--11--11S--8--8--8--8S--|
--x--x--x--x--x--x--x-----|---x---x---x---x---x--x--x--x---|
--4--4--4--4--x--2--2S----|---9---9---9---9S--6--6--6--6S--|
--------------------------|--------------------------------|


  E  E  E   E  Q     Q                                                       
----------------------------|-------|-------|-------|-------|-------|-------|
----------------------------|-------|-------|-------|-------|-------|-------|
--6--6--6s--8--6----(6)\----|-------|-------|-------|-------|-------|-------|
--x--x--x---x--x------------|-------|-------|-------|-------|-------|-------|
--4--4--4s--6--4----(4)\----|-------|-------|-------|-------|-------|-------|
----------------------------|-------|-------|-------|-------|-------|-------|


-------|-------|-------|-------|-------|-------|-------|-------|-------|-------|
-------|-------|-------|-------|-------|-------|-------|-------|-------|-------|
-------|-------|-------|-------|-------|-------|-------|-------|-------|-------|
-------|-------|-------|-------|-------|-------|-------|-------|-------|-------|
-------|-------|-------|-------|-------|-------|-------|-------|-------|-------|
-------|-------|-------|-------|-------|-------|-------|-------|-------|-------|


   E   E   E   E  E  Q    E      E  E  E  E  E  Q    E    
------------------------------|--------------------------|
------------------------------|--------------------------|
--11--11--11--11--x--8----8S--|--6--6--6--6--x--4----4S--|
---x---x---x---x--x--x----x---|--x--x--x--x--x--x----x---|
---9---9---9---9--x--6----6S--|--4--4--4--4--x--2----2S--|
------------------------------|--------------------------|


   E   E   E   E   E  E  E  E     E  E  E   E   Q    Q     
-------------------------------|--------------------------|
-------------------------------|--------------------------|
--11--11--11--11S--8--8--8--8--|--6--6--6s--8S--6----4----|
---x---x---x---x---x--x--x--x--|--x--x--x-------x----x----|
---9---9---9---9S--6--6--6--6--|--4--4--4s--6S--4----2----|
-------------------------------|--------------------------|


   E   E   E   E  E  Q    E      E  E  E  E  E  Q    E    
------------------------------|--------------------------|
------------------------------|--------------------------|
--11--11--11--11--x--8----8S--|--6--6--6--6--x--4----4S--|
---x---x---x---x--x--x----x---|--x--x--x--x--x--x----x---|
---9---9---9---9--x--6----6S--|--4--4--4--4--x--2----2S--|
------------------------------|--------------------------|


   E   E   E   E   E  E  E  E     E  E  E   E   H                         
-------------------------------|-------------------------|-------|-------|
-------------------------------|-------------------------|-------|-------|
--11--11--11--11S--8--8--8--8--|--6--6--6s--8S--6--------|-------|-------|
---x---x---x---x---x--x--x--x--|--x--x--x-------x--------|-------|-------|
---9---9---9---9S--6--6--6--6--|--4--4--4s--6S--4--------|-------|-------|
-------------------------------|-------------------------|-------|-------|


                                          Q    Q    Q     Q      
-------|-------|-------|-------|-------|------------------------|
-------|-------|-------|-------|-------|------------------------|
-------|-------|-------|-------|-------|------------------------|
-------|-------|-------|-------|-------|------------------------|
-------|-------|-------|-------|-------|------------------------|
-------|-------|-------|-------|-------|-----------------14\----|


     PM PM    PM PM    PM    PM    PM PM    PM    PM  
  E  E  E  E  E  E  E  E     E  E  E  E  E  E  E  E   
--4--------2--------0-----|-----4--------2-----0-----|
--0--0--0--0--0--0--0--0--|--0--0--0--0--0--0--0--0--|
--------------------------|--------------------------|
--------------------------|--------------------------|
--------------------------|--------------------------|
--------------------------|--------------------------|


     PM PM    PM PM    PM    PM    PM PM    PM                               
  E  E  E  E  E  E  E  E     E  E  E  E  E  E  Q                             
--4--------2--------0-----|-----4--------2-----0----|-------|-------|-------|
--0--0--0--0--0--0--0--0--|--0--0--0--0--0--0--0----|-------|-------|-------|
--------------------------|-------------------------|-------|-------|-------|
--------------------------|-------------------------|-------|-------|-------|
--------------------------|-------------------------|-------|-------|-------|
--------------------------|-------------------------|-------|-------|-------|


           E   E   E   E  E  Q    E      E  E  E  E  E  E  Q      
-------|------------------------------|--------------------------|
-------|------------------------------|--------------------------|
-------|--11--11--11--11--x--8----8S--|--6--6--6--6--x--4--4S----|
-------|---x---x---x---x--x--x----x---|--x--x--x--x--x--x--x-----|
-------|---9---9---9---9--x--6----6S--|--4--4--4--4--x--2--2S----|
-------|------------------------------|--------------------------|


   E   E   E   E   E  E  E  E      E  E  E   E  Q    E  E   
--------------------------------|--------------------------|
--------------------------------|--------------------------|
--11--11--11--11S--8--8--8--8S--|--6--6--6s--8--6----6--6--|
---x---x---x---x---x--x--x--x---|--x--x--x---x--x----x--x--|
---9---9---9---9S--6--6--6--6S--|--4--4--4s--6--4----4--4--|
--------------------------------|--------------------------|


   E   E   E   E  E  Q    E      E  E  E  E  E  E  Q      
------------------------------|--------------------------|
------------------------------|--------------------------|
--11--11--11--11--x--8----8S--|--6--6--6--6--x--4--4S----|
---x---x---x---x--x--x----x---|--x--x--x--x--x--x--x-----|
---9---9---9---9--x--6----6S--|--4--4--4--4--x--2--2S----|
------------------------------|--------------------------|


   E   E   E   E   E  E  E  E      E  E  E   E  Q     Q                       
--------------------------------|----------------------------|-------|-------|
--------------------------------|----------------------------|-------|-------|
--11--11--11--11S--8--8--8--8S--|--6--6--6s--8--6----(6)\----|-------|-------|
---x---x---x---x---x--x--x--x---|--x--x--x---x--x------------|-------|-------|
---9---9---9---9S--6--6--6--6S--|--4--4--4s--6--4----(4)\----|-------|-------|
--------------------------------|----------------------------|-------|-------|


-------|-------|-------|-------|-------|-------|-------|-------|-------|-------|
-------|-------|-------|-------|-------|-------|-------|-------|-------|-------|
-------|-------|-------|-------|-------|-------|-------|-------|-------|-------|
-------|-------|-------|-------|-------|-------|-------|-------|-------|-------|
-------|-------|-------|-------|-------|-------|-------|-------|-------|-------|
-------|-------|-------|-------|-------|-------|-------|-------|-------|-------|


-------|-------|-------|-------|-------|-------|-------|-------|-------|-------|
-------|-------|-------|-------|-------|-------|-------|-------|-------|-------|
-------|-------|-------|-------|-------|-------|-------|-------|-------|-------|
-------|-------|-------|-------|-------|-------|-------|-------|-------|-------|
-------|-------|-------|-------|-------|-------|-------|-------|-------|-------|
-------|-------|-------|-------|-------|-------|-------|-------|-------|-------|


                   <              PM PM    PM PM    PM  
          H        H           E  E  E  E  E  E  E  E   
-------|--------------------|--------------------------|
-------|-----------2--------|--5--------4--------7-----|
-------|-----------3--------|--4--4--4--4--4--4--4--4--|
-------|--------------------|--------------------------|
-------|--------------------|--------------------------|
-------|--------------------|--------------------------|


  PM    PM PM    PM    PM       PM PM    PM PM    PM  
  E  E  E  E  E  E  E  E     E  E  E  E  E  E  E  E   
--------------------------|--------------------------|
-----5--------7-----5-----|--5--------4--------7-----|
--4--4--4--4--4--4--4--4--|--4--4--4--4--4--4--4--4--|
--------------------------|--------------------------|
--------------------------|--------------------------|
--------------------------|--------------------------|


  PM    PM PM    PM    PM       PM PM    PM PM    PM  
  E  E  E  E  E  E  E  E     E  E  E  E  E  E  E  E   
--------------------------|--------------------------|
-----5--------7-----5-----|--5--------4--------7-----|
--4--4--4--4--4--4--4--4--|--4--4--4--4--4--4--4--4--|
--------------------------|--------------------------|
--------------------------|--------------------------|
--------------------------|--------------------------|


  PM    PM PM    PM    PM                             
  E  E  E  E  E  E  E  E     E  E  E  E  E  E  E  E   
--------------------------|--------------------------|
-----5--------7-----5-----|--5--5--5--5--4--4--4--4--|
--4--4--4--4--4--4--4--4--|--4--4--4--4--4--4--4--4--|
--------------------------|--------------------------|
--------------------------|--------------------------|
--------------------------|--------------------------|


  E  E  E  E  E  E  E  E                                             
--------------------------|-----|-----|-----|-----|-----|-----|-----|
--5--5--5--5--4--4--4--4--|-----|-----|-----|-----|-----|-----|-----|
--4--4--4--4--4--4--4--4--|-----|-----|-----|-----|-----|-----|-----|
--------------------------|-----|-----|-----|-----|-----|-----|-----|
--------------------------|-----|-----|-----|-----|-----|-----|-----|
--------------------------|-----|-----|-----|-----|-----|-----|-----|


  H.           Q        E  E  E   E  E   E  E   E   
---------------------|-----------------------------|
---------------------|-----------------------------|
---------------8\----|-----4--6s--8--6s--4--6s--8--|
---------------------|--6--------------------------|
---------------------|-----------------------------|
---------------------|-----------------------------|


  E   E  E   E  E   E  Q       E  E  E   E  E   E  E   E   
----------------------------|-----------------------------|
----------------------------|-----------------------------|
--6s--4--6s--8--6s--4-------|-----4--6s--8--6s--4--6s--8--|
-----------------------4----|-----------------------------|
----------------------------|-----------------------------|
----------------------------|-----------------------------|


  H         E  E  Q        E  E  E   E  E   E  E   E   
------------------------|-----------------------------|
------------------------|-----------------------------|
--6~--------6--6--6\----|-----4--6s--8--6s--4--6s--8--|
------------------------|--6--------------------------|
------------------------|-----------------------------|
------------------------|-----------------------------|


  E   E  E   E  E   E  Q       E  E  E   E  E   E  E   E   
----------------------------|-----------------------------|
----------------------------|-----------------------------|
--6s--4--6s--8--6s--4-------|-----4--6s--8--6s--4--6s--8--|
-----------------------4----|-----------------------------|
----------------------------|-----------------------------|
----------------------------|-----------------------------|


  H         Q    Q                                                             
----------------------|-------|-------|-------|-------|-------|-------|-------|
----------------------|-------|-------|-------|-------|-------|-------|-------|
--6~--------x---------|-------|-------|-------|-------|-------|-------|-------|
------------x---------|-------|-------|-------|-------|-------|-------|-------|
------------x---------|-------|-------|-------|-------|-------|-------|-------|
----------------------|-------|-------|-------|-------|-------|-------|-------|


-------|-------||
-------|-------||
-------|-------||
-------|-------||
-------|-------||
-------|-------||




Duration Legend
---------------
W - whole
H - half
Q - quarter
E - 8th
S - 16th
T - 32nd
X - 64th
. - note dotted
|-n-|  - n-tuplets


Tablature Legend
----------------
L - tied note
x - dead note
g - grace note
(n) - ghost note
> - accentuded note
NH - natural harmonic
AH - artificial harmonic
TH - tapped harmonic
SH - semi harmonic
PH - pitch harmonic
h - hammer on
p - pull off
b - bend
br - bendRelease
pb - preBend
pbr - preBendRelease
brb - bendReleaseBend
\n/ - tremolo bar dip
\n - tremolo bar dive
-/n - tremolo bar Release up
/n\ - tremolo bar inverted dip
/n - tremolo bar return
-\n - tremolo bar Release down
S - shift slide
s - legato slide
/ -  slide into from below or out of upwards
\ -  slide into from above or out of downwards
~ - vibrato
W - wide vibrato
tr - trill
TP - tremolo picking
T - tapping
S - slap
P - pop
< - fade in
^ - brush up
v - brush down