Fall Out Boy - 7 Minutes In Heaven (atavan Halen) Chords & Tabs

 

7 Minutes In Heaven (atavan Halen) Chords & Tabs

Fall Out Boy Chords & Tabs

Version: 1 Type: Tab 3 ratings
1 star 2 stars 3 stars 4 stars 5 stars
comments

7 Minutes In Heaven (atavan Halen) Tab

Tabed by Evan 

aim me at crazyfreaker09 if help needed or if you want any more songs

this is a pretty easy song when you get the hang of it

*=palm mute
x=rake


Intro Pt. 1 
e|------------------------------------|
B|------------------------------------|
G|-10-1010--9-99-7-77-10-9-7----------|
D|-9--9-9---9-99-9-99-9--9-9----------|x2
A|------------------------------------|
E|------------------------------------|
      * *     **   **      


Intro Pt. 2 Lead 
e|----------------------------------------------------|
B|----------------------------------------------------|
G|-1111111--88--6666--44--1111111--8888--66--6/8\6----|
D|-x-x-x-x--xx--xxxx--xx--x-x-x-x--xxxx--xx--x/x\x----|x2
A|-9-9-9-9--66--4444--22--9-9-9-9--6666--44--4/6\4----|
E|----------------------------------------------------|



Verse 1 Rhythm 
e|----------------------------------------------------|
B|----------------------------------------------------|
G|------------44-4------------------44-4--------------|
D|-66-6-------44-4-x4----22-2-------44-4-x4-----------|x2
A|-66-6-x4----22-2-------22-2-x4----22-2--------------|
E|-44-4------------------00-0-------------------------|              
   **         **         **         **

Verse gtr 2.
(play when Verse 1 Rhythm is on 

G|---4-4-----
D|---4-4-x4--
A|---2-2-----

e|------------------------------------|
B|------------------------------------|
G|-10-1010--9-99-7-77-10-9-7----------|
D|-9--9-9---9-99-9-99-9--9-9----------|
A|------------------------------------|
E|------------------------------------|
      * *     **   **


    


Pre Chorus 
e|----------------------------------------------------|
B|----------------------------------------------------|
G|--------------44------------------------------------|
D|-6666-22-4444-44-6666-2222-44444444-----------------|x2
A|-6666-22-4444-22-6666-2222-44444444-----------------|
E|-4444-00-2222----4444-0000-22222222-----------------|


Chorus 
e|--------------------------------------------------------|
B|--------------------------------------------------------|
G|-44x----------------------------------------------------|
D|-44x-4-22x-4-66x-4-22x-4--------------------------------|x4
A|-22x-4-22x-4-66x-4-22x-4--------------------------------|
E|-----2-00x-2-44x-2-00x-2--------------------------------|

play intro pt. 2 (right after chorus)

Intro (played during most of the verse 2)
  (start right after intro part 2
e|------------------------------------|
B|------------------------------------|
G|-10-1010--9-99-7-77-10-9-7----------|
D|-9--9-9---9-99-9-99-9--9-9----------|
A|------------------------------------|
E|------------------------------------|
      * *     **   **

[ Tab from: http://www.guitartabs.cc/tabs/f/fall_out_boy/7_minutes_in_heaven_atavan_halen_tab.html ]
Verse 2 gtr 2.
e|----------------------------------------------------|
B|----------------------------------------------------|
G|------------44-4------------------4444444444444444--|
D|-66-6-------44-4-x4----22-2-------4444444444444444--|
A|-66-6-x4----22-2-------22-2-x4----2222222222222222--|
E|-44-4------------------00-0-------------------------| 
   **         **         **         ****************

      
pre chorus
chorus

Bridge (played during the la la la la)
e|-----------------------------------------|
B|-----------------------------------------|
G|----------6----------------4-------------|
D|-6--------6-x16---2--------4-x16---------|x2
A|-6-x16----4-------2-x16----2-------------|
E|-4----------------0----------------------|              
   *        *        *        * 


Bridge gtr 2. (played during the la la la la)
e|------------------------------------|
B|------------------------------------|
G|-10-1010--9-99-7-77-10-9-7----------|
D|-9--9-9---9-99-9-99-9--9-9----------|
A|------------------------------------|
E|------------------------------------|
      * *     **   **

played before the pre chorus

e|----------------------------------------------------|
B|----------------------------------------------------|
G|----------------------------------------------------|
D|-66----44----6666-2222-4444-------------------------|
A|-66----44----6666-2222-4444-------------------------|
E|-44----22----4444-0000-2222-------------------------|

pre chorus (pre chorus played into the solo)

but the trick to the solo is to pause on the 9th fret on the a
string for a sec

some ppl say the solo is played like this im not sure it 
might be but i think its the same but played with out the
hammer ons

Solo
e|-----------------------------------------------------------------|
B|-----------------------------------------------------------------|
G|-----------------------------------------------------------------|
D|-11-11h13-11\9-11h13-11\9-11h13-11\9-----11-11h13-11\9-11h13-11--|x2
A|-------------------------------------9---------------------------|
E|-----------------------------------------------------------------|

or maybe 

e|-----------------------------------------------------------------|
B|-----------------------------------------------------------------|
G|-----------------------------------------------------------------|
D|-11--11\9--11\9--11\9-----11---11\9--11--------------------------|x2
A|----------------------9------------------------------------------|
E|-----------------------------------------------------------------|



chorus but clean

stop on the courus when on
e|--------------|
B|--------------|
G|--------------|
D|---4----------|
A|---4----------|
E|---2----------|

Thanks, rate, and have fun.
Comments