Falconhead - One Love Chords & Tabs

 

One Love Chords & Tabs

Falconhead Chords & Tabs

Version: 1 Type: Tab 0 ratings
1 star 2 stars 3 stars 4 stars 5 stars
comments

One Love Tab

   
Artist: Falconhead
Song: One Love


Verse- 4X
E----------------------------------
B----------------------------------
G----------------------------------
D-99999999555555552222222222222222-
A-99999999555555552222222222222222-
E-77777777333333330000000000000000-

[ Tab from: http://www.guitartabs.cc/tabs/f/falconhead/one_love_tab.html ]
Chorus-
E----------------------------
B----------------------------
G----------------------------
D----9-9-9-5-5-5-2-2-2-2-2-0-
A-5/7-7-7-3-3-3-0-0-0-0-0-0--
E----------------------------


Verse- 4X
E----------------------------------
B----------------------------------
G----------------------------------
D-99999999555555552222222222222222-
A-99999999555555552222222222222222-
E-77777777333333330000000000000000-


Chorus-
E----------------------------
B----------------------------
G----------------------------
D----9-9-9-5-5-5-2-2-2-2-2-0-
A-5/7-7-7-3-3-3-0-0-0-0-0-0--
E----------------------------
Comments