Falconhead - Bed Of Roses Chords & Tabs

 

Bed Of Roses Chords & Tabs

Falconhead Chords & Tabs

Version: 1 Type: Bass Tab 0 ratings
1 star 2 stars 3 stars 4 stars 5 stars
comments

Bed Of Roses Bass Tab

   
Falconhead - Bed Of Roses
evolver32 (evolver_32@yahoo.com)


VERSE
G---------------------------------
D---------------------------------      X2
A---------------------------------
E-0~------2~------3~------2~------
[ Tab from: http://www.guitartabs.cc/tabs/f/falconhead/bed_of_roses_btab.html ]
PRE-CHORUS
G---------------------------------
D---------------------------------      X2
A---------------------------------
E-0-0-0-0-2-2-2-2-3-3-3-3-2-2-2-2-

CHORUS
G---------------------------------
D---------------------------------      X4
A---------------------------------
E-7~------3~------5~------5~------

VERSE
G---------------------------------
D---------------------------------      X2
A---------------------------------
E-0~------2~------3~------2~------

For corrections email(evolver_32@yahoo.com)
Comments