Fake Id - Day Like Forever Chords & Tabs

 

Day Like Forever Chords & Tabs

Fake Id Chords & Tabs

Version: 1 Type: Bass Tab 0 ratings
1 star 2 stars 3 stars 4 stars 5 stars
comments

Day Like Forever Bass Tab

   
------------------------------------------------------------------------------- 
                    DAY LIKE FOREVER - Fake I.D. 
------------------------------------------------------------------------------- 

By: (d) 

Guitar Intro... 
Drums come in... 

Intro 2x (end on 2~ after playing Intro) 
G|---------------------------------------------------------------------------| 
D|---------------------------------------------------------------------------| 
A|--2>-----------2~----------------------------------------------------------| 
E|------4>--2>---------------------------------------------------------------| 

Continuation of verse (slower beat) 
G|---------------------------------------------------------------------------| 
D|---------------------------------------------------------------------------| 
A|--2>-----------------------------------------------------------------------| 
E|-------4>---0~---2-2-2-2---------------------------------------------------| 
[ Tab from: http://www.guitartabs.cc/tabs/f/fake_id/day_like_forever_btab.html ]
Chorus 2x (end on 2~ again) 
G|---------------------------------------------------------------------------| 
D|---------------------------------------------------------------------------| 
A|--2>----------------2~-----------------------------------------------------| 
E|------0>--4>-2>-0>---------------------------------------------------------| 

Continuation of verse 

Bridge 4x 
G|---------------------------------------------------------------------------| 
D|---------------------------------------------------------------------------| 
A|--2>--4>-------------------------------------------------------------------| 
E|----------0>--2>-----------------------------------------------------------| 

Chorus 4x 

Outro 
G|---------------------------------------------------------------------------| 
D|---------------------------------------------------------------------------| 
A|---------------------------------------------------------------------------| 
E|--4--2--0~-----------------------------------------------------------------| 

Just follow the bass guitar...try listening really hard. 
Tabs are only there to guide you anyway. But if you're having trouble figuring 
it out, drop me a letter. Sorry if it's sloppy. 

-------------------------------------------------------------------------------
Comments