Faith No More - Everythings Ruined Chords & Tabs

 

Everythings Ruined Chords & Tabs

Faith No More Chords & Tabs

Version: 2 Type: Tab 0 ratings
1 star 2 stars 3 stars 4 stars 5 stars
comments

Everythings Ruined Tab

   
Faith No More - Everything's Ruined
Tabbed by Nathan Jarrell and Keith Moore

INTRO
e|---------------------------------------------------------------------------|
B|--------------------5-----3----2-----0-------------------------------------|
G|--0-----2-----4----------------------------0---------4------2--------------|
D|-----------------------------------------------------4------2--------------|
A|-----------------------------------------------------2------0--------------|
E|---------------------------------------------------------------------------|

VERSE
Play F# all the way through the bass part if you're playing alone, until you get to
this part:

VERSE PT. 2 (Play twice)
e|---------------------------------------------------------------------------|
B|---------------------------------------------------------------------------|
G|-----------------------------5---4-----------------------------------------|
D|---4X-4X-4X-4X-4X-4X-4X------5---4----4X-4X-4X-4X-4X-4X-4X-----------------|
A|---4X-4X-4X-4X-4X-4X-4X------3---2----4X-4X-4X-4X-4X-4X-4X-----------------|
E|---2X-2X-2X-2X-2X-2X-2X---------------2X-2X-2X-2X-2X-2X-2X-----------------|

e|---------------------------------------------------------------------------|
B|---------------------------------------------------------------------------|
G|-----------------------------------------------5----4----------------------|
D|----------------------4X-4X-4X-4X-4X-4X-4X-----5----4----------------------|
A|----2h/3p\2p\0--------4X-4X-4X-4X-4X-4X-4X-----3----2----------------------|
E|---------------2p\0---2X-2X-2X-2X-2X-2X-2X---------------------------------|

e|---------------------------------------------------------------------------|
B|---------------------------------------------------------------------------|
G|------------------------------4---5----------------------------------------|
D|-----4X-4X-4X-4X-4X-4X-4X-----4---5----------------------------------------|
A|-----4X-4X-4X-4X-4X-4X-4X-----2---3----------------------------------------|
E|-----2X-2X-2X-2X-2X-2X-2X--------------------------------------------------|

VERSE PT. 3 (Note: Play twice, palm muting the hammer-on/pull-off lick the second time.)
e|---------------------------------------------------------------------------|
B|---------------------------------------------------------------------------|
G|---------------------------------------------------------------------------|
D|-4--2----------------------------------------------------------------------|
A|-4--2-------2h/3p\2p\0h/2p\0-----------------------------------------------|
E|-2--0-------------------------2p\0h/2--------------------------------------|

CHORUS: Play twice
e|---------------------------------------------------------------------------|
B|---------------------------------------------------------------------------|
G|------7-------7-------7------7---------------------------------------------|
D|------7-------7-------7------7------7------7------7------7-----------------|
A|------5-------5-------5------5------7------7------7------7-----------------|
E|------------------------------------5------5------5------5-----------------|

VERSE PT. 1
VERSE PT. 2 (Only play once)
CHORUS
INTRO

BRIDGE (Play twice)
e|---------------------------------------------------------------------------|
B|---------------------------------------------------------------------------|
G|---------------------------------------------------------------------------|
D|-----5X--5X----5X--5X----5X--5X-----5-------5X--5X----5X--5X----5X--5X-----|
A|-----5X--5X----5X--5X----5X--5X-----5-------5X--5X----5X--5X----5X--5X-----|
E|-----3X--3X----3X--3X----3X--3X-----3-------3X--3X----3X--3X----3X--3X-----|
[ Tab from: http://www.guitartabs.cc/tabs/f/faith_no_more/everythings_ruined_tab_ver_2.html ]
e|---------------------------------------------------------------------------|
B|---------------------------------------------------------------------------|
G|---4-----2-----------------------------------------------------------------|
D|---4-----2-----------------------------------------------------------------|
A|---2-----0-----------------------------------------------------------------|
E|---------------------------------------------------------------------------|

SOLO

e|---------------------------------------------------------------------------|
B|---------------------------------------------------------------------------|
G|--------------------------------------------9b11-----9---------------------|
D|--------------------------9------------------------------------------------|
A|------------9----------------------12v-------------------------------------|
E|----10v----------12v-------------------------------------------------------|

e|---------------------------------------------------------------------------|
B|---------------------------------------------------------------------------|
G|-------6----7----9------------------------9p\6------------9p\6-------------|
D|------------------------7--------7-----------------7--------------7--------|
A|----------------------------7----------------------------------------------|
E|---------------------------------------------------------------------------|

e|---------------------------------------------------------------------------|
B|---------------------------------------------------------------------------|
G|------9p\6------------9p\6-----------9p\6----------------------------------|
D|---------------7--------------7--------------7-----------------------------|
A|---------------------------------------------------------------------------|
E|---------------------------------------------------------------------------|

e|---------------------------------------------------------------------------|
B|---------------------------------------------------------------------------|
G|---------------------------------------------9b11---9----------------------|
D|----------------------12v-------------12v----------------------------------|
A|--------------9----------------9-------------------------------------------|
E|------10v------------------------------------------------------------------|


e|-----------------17--------------------------------------------------------|
B|-------14h/15-----------15----14-----------------------------14------------|
G|--------------------------------------16---14-----------14---------14------|
D|-------------------------------------------------16--------------------16--|
A|---------------------------------------------------------------------------|
E|---------------------------------------------------------------------------|

e|---------------------------14----------------------------------------------|
B|---------------------------------------------------------------------------|
G|-----14h/16----16b18HOLD-------RELEASE BEND----14--------------------------|
D|---------------------------------------------------------------------------|
A|---------------------------------------------------------------------------|
E|---------------------------------------------------------------------------|

CHORUS (Play twice)

Outro
e|---------------------------------------------------------------------------|
B|---------------------------------------------------------------------------|
G|---------------------------------------------------------------------------|
D|-----5X---5X------5X---5X-----5X---5X-----5X----5--------------------------|
A|-----5X---5X------5X---5X-----5X---5X-----5X----5--------------------------|
E|-----3X---3X------3X---3X-----3X---3X-----3X----3--------------------------|

There you have it. I'm pretty sure it's completely accurate, but the really fast part
of the solo may be off a little bit. If you have corrections, or need an explanation
of something, email me at the_misfit@graffiti.net

| h/  hammer-on
| p\  pull-off
| v  vibrato
| +  harmonic
| x  Mute note
| b  Bend
===============================================================================
Comments