Faith No More - Easy Chords & Tabs

 

Easy Chords & Tabs

Faith No More Chords & Tabs

Version: 6 Type: Tab 0 ratings
1 star 2 stars 3 stars 4 stars 5 stars
comments

Easy Tab

Easy - Faith No More / Lionel Ritchie

Solo:

e------------------------------------11-8--------------------------|
B--------9~-\15---------------------------9------------------------|
G-------------------------------------------11-8-------------------|
D-9/8------------9/8----------9/8----------------11-9-12/11-9------|
A-----11-------------11--11/------11--------------------------11---|
E------------------------------------------------------------------|
[ Tab from: http://www.guitartabs.cc/tabs/f/faith_no_more/easy_tab_ver_6.html ]
e----------------------------------11/13-11-13-8-11-8--------------|
B--------9~-\15---------------------------------------12p11p9------|
G-------------------------------------------------------------10---|
D-9/8-----------9/8---------9/8------------------------------------|
A-----11-------------11-11/-----11---------------------------------|
E------------------------------------------------------------------|

small riff:

e—10\12/10—-----17\19/17------------------------------|
B-----------------------------------------------------|
G-----------------------------------------------------|
D-----------------------------------------------------|
A-----------------------------------------------------|
E-----------------------------------------------------|
Comments