Faith No More - Easy Chords & Tabs

 

Easy Chords & Tabs

Faith No More Chords & Tabs

Version: 3 Type: Tab 0 ratings
1 star 2 stars 3 stars 4 stars 5 stars
comments

Easy Tab

   
From : (Brain) Andrio Spich
chilibrain@zipmail.com.br

This is the TRUE version by Faith no More
Turn "UP" half tone (F, Bb, Eb, Ab, C , F)

G                  Bm
You know it sounds funny
                 Am            D
But I just can't stand the pain
G        Bm               Am     D
Girl I'm leavin' you tomorrow
G        Bm
Seems to me, girl
              Am       D
You know I've done all I can
G          Bm                Am          D
You see, I beg, stole and I borrowed, yeah
[Chorus]
             G     Bm     Am
It's why I'm easy
    D7                G      Bm     Am     D7
I'm easy like Sunday morning
             G     Bm     Am
It's why I'm easy
 D7               F   C    D  G
Easy like Sunday mooo.ooo..oorning

[ Tab from: http://www.guitartabs.cc/tabs/f/faith_no_more/easy_tab_ver_3.html ]
[Bridge]
           F     C  Dm
I wanna be high, so high
           F                         C      Dm
I wanna be free to know the things I do are right
        C  F
I wanna be free
C    Dm
Just me
      Bb    F     Bb    C
Oh babe

[Chorus]


[solo]
E|------3--13------------------------10--------------------------------|
B|0b---------------0-----------0--------12-----------------------------|
G|--0-0--------------0-0---------0-0-------12--------------------------|
D|------------------------3-------------------10-9-7-----9-------------|
A|-----------------------------------------------------9----9--9-------|
E|---------------------------------------------------------------------|

E|------3--13----------------------12-10-12----10-------------10----------------|
B|0b---------------0-----------0------------10----12-10-------------------------|
G|--0-0--------------0-0---------0----------------------9-v---------------------|
D|-----------------------3------------------------------------------------------|
A|------------------------------------------------------------------------------|
E|------------------------------------------------------------------------------|

[Chorus]

[back-vocal]
E|----------------------|
B|----------------------|
G|----------------------|
D|--5--4--0--2----------|
A|----------------------|
E|----------------------|
Comments