Faith No More - Easy Chords & Tabs

 

Easy Chords & Tabs

Faith No More Chords & Tabs

Version: 1 Type: Tab 0 ratings
1 star 2 stars 3 stars 4 stars 5 stars
comments

Easy Tab

Title: Easy
Artist: Faith No More 
Album: Angel Dust


E-------------------------|---------------------------------
B-------------------------|---------------------------------
G------------13----(13)//-|---------------------------------
D-------------------------|---------------------------------
A--13br-------------------|--13br---------------------------
E--------16---------------|--------16--16-----16\\----------

E-----------------------------------------------------------
B------------16---------------------------------------------
G----------------15--13-------------------------------------
D------------------------16--15--13^^--13-15-13-------------
A--13br-----------------------------------------16---16\/\/-
E---------16------------------------------------------------
[ Tab from: http://www.guitartabs.cc/tabs/f/faith_no_more/easy_tab.html ]
E-------------------------|---------------------------------
B-------------------------|---------------------------------
G------------13----(13)//-|---------------------------------
D-------------------------|---------------------------------
A--13br-------------------|--13br---------------------------
E--------16---------------|--------16--16-----16\\----------

E-----------------------------------------------------------
B------------16------16-------------------------------------
G----------------15------13b-15-15-13h15p13-----------------
D--------------------------------------------16-------------
A--13br-----------------------------------------------------
E---------16------------------------------------------------

E-----------------------------------------------------------
B-----------------------------16b--14^^---------------------
G-----------------------------------------------------------
D-----------------------------------------------------------
A--16--16--------16--13^^-----------------------------------
E-----------------------------------------------------------


13br     	bend/then release
13//     	slid up (fast)
16\\     	slide down (the same a higher)
13^^     	vibrato
(16)/\/\ 	wide vibrato (the (16th fret) is still ringing from the earlier note)
Comments