Faith No More - Digging The Grave Chords & Tabs

 

Digging The Grave Chords & Tabs

Faith No More Chords & Tabs

Version: 2 Type: Bass Tab 0 ratings
1 star 2 stars 3 stars 4 stars 5 stars
comments

Digging The Grave Bass Tab

#----------------------------------PLEASE NOTE---------------------------------#
#This file is the author's own work and represents their interpretation of the #
#song. You may only use this file for private study, scholarship, or research. #
#------------------------------------------------------------------------------##
From: dougc@umd.umich.edu (Douglas William Cole)
Subject: BTAB:  Faith No More: Digging the Grave

"Digging the Grave"
from the album "King for a day, Fool for a lifetime"
written by Faith No More

** Well, this song is pretty easy.  I guess I just decided to post this up
** here so you guys don't have to take the 5-10 minutes to figure it out.
** Hope you enjoy it.


Riff 1.
G -------------------------------------------------------------------------
D -------------------------------------------------------------------------
A 3-3-3-3-3-3-3-3---------------4\5-5-5-5-5-5-5-5-----------------2\3------
E ----------------4-4-4-4-4-4-4-------------------6-6-6-6-6-6-6-6----------

It wasn't wrong to ask you why, because I know what goes inside,
Use only half of what comes out, isn't that what it's about?
etc

G -------------------------------------------------------------------------
D -------------------------------------------------------------------------
A 3-3-3-3-3-3-3-3-----------------5-5-5-5-5-5-5-5--------------------------
E ----------------4-4-4-4-4-4-4-4-----------------6-6-6-6-6-6-6-6----------

It's about, to .. etc.

** The second time he plays this riff, the last time he does this little 
** fill.  I think he just does this:

G ------------------------------------------------------------------------
D --------------------------------------------5\6-------------------------
A 3-3-3-3-3-3-3-3-----------------5-5-5-5-7\8-----------------------------
E ----------------4-4-4-4-4-4-4-4-----------------4-4-4-4-4-4-4-4---------



G ------------------------------------------------------------------------
D ------------------------------------------------------------------------
A ------------------------------------------------------------------------
E 0-0-0-0-0-0-0-0-8-8-8-8-8-8-8-8-0-0-0-0-0-0-0-8-8-8-8-8-8-8-8-----------
  Ohhh, ohhh...   There's something in, there's something out, you left 
                  the door open wide.
[ Tab from: http://www.guitartabs.cc/tabs/f/faith_no_more/digging_the_grave_btab_ver_2.html ]
G ------------------------------------------------------------------------
D ------------------------------------------------------------------------
A ---------5-5------------------------5-5---------------------------------
E 7-7-5-7------7-7-5-7--8-8--7-7-5-7------7-7-5-7--8-8--------------------
                             Digging the grave, I got it made.

**  More of the same.

**  Interlude:

G ---|--------------------------------------------------------------------
D ---|--------------------------------------------------------------------
A 5\-|--3-3-3-3-3-3-3-3-3-3-3-3-3-3-3-3-3-3-3-3-3-3-3-3-3-3-3-3-3-3-3-3---
E ---|--------------------------------------------------------------------

G ------------------------------------------------------------------------
D ------------------------------------------------------------------------
A 0\7-7-7-7-7-7-7-7\9-9-9-9-9-9-9-9\10-10-10-10-10-10-10\0-5-5-5-5-5-5-5-5\
E ------------------------------------------------------------------------

G ------------------------------------------------------------------------
D ------------------------------------------------------------------------
A 7-7---------------------------------------------------------------------
E ------------------------------------------------------------------------

**  Last three are played twice, then:

G ------------------------------------------------------------------------
D ------------------------------------------------------------------------
A ----7-7\--------7-7\--------7-7\--------7-7\----------------------------
E 0-0------0-0--0------0-0--0------0-0--0------0-0------------------------

G ------------------------------------------------------------------------
D ------------------------------------------------------------------------
A --7\5------------7\5------------7\5------------7\5----------------------
E 0-----7\5-0-0--0-----7\5-0-0--0-----7\5-0-0--0-----7\5-0-0--0-----------



**  The rest of the song is just more of the above.  He might do some other
**  fills that I can't hear, and the sliding on the interlude part is 
**  probably wrong, but that's pretty much it.  If anyone has any 
**  corrections or additions, mail me.  Also, mail me if you *really* want
**  any FNM tab for the bass.  I probably know it.

dougc@umd.umich.edu


Comments