Faith No More - Ashes To Ashes Chords & Tabs

 

Ashes To Ashes Chords & Tabs

Faith No More Chords & Tabs

Version: 4 Type: Tab

Ashes To Ashes Tab

Artist: faith no more
song: ashes to ashes
album: album of the year
tab by: mr_munners@hotmail.com

Intro

----------------|
----------------|
----------------|
----------------|
----3br---5br---|
-0-0----0-------|

verse

---------------------------------|
---------------------------------|
---------------------------------|
---12*12*12*12*--12*12*12*12*----|
---------------------------------|
---------------------------------|

then play this...
---------------|
---------------|
---------------|
---------------|
-----5---5br---|
-0-0---0-------|

Chorus

--------------------------------------------------------------------|
--------------------------------------------------------------------|
--------------------------------------------------------------------|
--3-3-3-3-3-3-3-3-3-3-3-3-3-3-3-3-5-5-5-5-5-5-5-5-5-5-5-5-5-5-5-5-5-|
--3-3-3-3-3-3-3-3-3-3-3-3-3-3-3-3-3-3-3-3-3-3-3-3-3-3-3-3-3-3-3-3-3-|
--3-3-3-3-3-3-3-3-3-3-3-3-3-3-3-3-----------------------------------|
[ Tab from: http://www.guitartabs.cc/tabs/f/faith_no_more/ashes_to_ashes_tab_ver_4.html ]
----------------------------------------------------------------------|
----------------------------------------------------------------------|
----------------------------------------------------------------------|
--3-3-3-3-3-3-3-3-3-3-3-3-3-3-3-3-3-3-3-3-3-3-3-3-3-3-3-3-3-3-3-3-5-5-|
--3-3-3-3-3-3-3-3-3-3-3-3-3-3-3-3-1-1-1-1-1-1-1-1-1-1-1-1-1-1-1-1-3-3-|
--3-3-3-3-3-3-3-3-3-3-3-3-3-3-3-3-------------------------------------|

intro riff

verse

pre chorus

chorus

then...

-----------------|
-----------------|
-----------------|
--0-0-3-0-3-12/0-|
--0-0-3-0-3-12/0-|
--0-0-3-0-3-12/0-|

repeat this several times until the solo

--12-10------------------------------------------|
--------10~-----13^-(13)-------------------------|
--------------------------10~--------9-----------|
-------------------------------------------------|
-------------------------------------------------|
-------------------------------------------------|

------------------------------------------|
--11-10-----------------------------------|
----------------10^-(10)------9-----------|
--------12~--10---------8~----------------|
------------------------------------------|
------------------------------------------|

Chorus

repeat heavy riff until the end