Faith No More - Ashes To Ashes Chords & Tabs

 

Ashes To Ashes Chords & Tabs

Faith No More Chords & Tabs

Version: 2 Type: Tab 0 ratings
1 star 2 stars 3 stars 4 stars 5 stars
comments

Ashes To Ashes Tab

Faith no more Ashes to ashes.
 Tabbed by Joel Volker,Joel Volker@yahoo.com.au.
  
 This is the full version 
  
  
FAITH NO MORE 
   'Ashes to Ashes'

Tuning: Tune LOW E to D

Intro
RIFF-1
E----------------
B----------------
G----------------                   
D---------------- 
A----3br---5br---
D-0-0----0-------

E-------------------
B-7--------8----10--
G-------------------                   
D------------------- 
A-------------------
D-------------------   VERSE KEYBOARD ARRANGED FOR GUITAR




VERSE
E-------------------------------
B-------------------------------
G--7-7-7-7-7--7-7-7-7-7---------   This repeats 4 times
D-------------------------------
A-------------------------------
D-------------------------------

RIFF-1
E----------------
B----------------
G----------------                   This repeats until the chorus
D---------------- 
A-----3br---5br---
D-0-0-----0-------

Chorus
[ Tab from: http://www.guitartabs.cc/tabs/f/faith_no_more/ashes_to_ashes_tab_ver_2.html ]
E----------------------------------------------------------------------------------
B----------------------------------------------------------------------------------
G----------------------------------5-5-5-5-5-5-5-5-5-5-5-5-5-5-5-5-5---------------
D--3-3-3-3-3-3-3-3-3-3-3-3-3-3-3-3-5-5-5-5-5-5-5-5-5-5-5-5-5-5-5-5-5---------------
A--3-3-3-3-3-3-3-3-3-3-3-3-3-3-3-3-3-3-3-3-3-3-3-3-3-3-3-3-3-3-3-3-3---------------
D--3-3-3-3-3-3-3-3-3-3-3-3-3-3-3-3-------------------------------------------------
E------------------------------------------------------------------
B------------------------------------------------------------------
G----------------------------------3-3-3-3-3-3-3-3-3-3-3-3-3-3-3-3-
D--3-3-3-3-3-3-3-3-3-3-3-3-3-3-3-3-3-3-3-3-3-3-3-3-3-3-3-3-3-3-3-3-
A--3-3-3-3-3-3-3-3-3-3-3-3-3-3-3-3-1-1-1-1-1-1-1-1-1-1-1-1-1-1-1-1
D--3-3-3-3-3-3-3-3-3-3-3-3-3-3-3-3---------------------------------


After this, it repeats a few times then goes to RIFF 2 and the solo

RIFF-2/OUTRO

E-----------------
B-----------------
G-----------------
D--0-0-3-0-3-12/0- This repeats until the solo
A--0-0-3-0-3-12/0-
D--0-0-3-0-3-12/0-
Solo
e------------------------------------------------------------
B-17-15----13br-------------11-10----------------------------
G-------14------10--9~~~--------------7-------7-9br-9--------
D--------------------------------------------------------8---
A------------------------------------------------------------
D------------------------------------------------------------

E----------------
B----------15B---
G----------------                  
D---------------- 
A-7B-------------
D----------------
After this, it goes back to the chorus, then to the outro


 
   
:: Ultimate Guitar Archive :: 
http://www.ultimate-guitar.com 

Comments