Faint - Worked Up So Sexual Chords & Tabs

 

Worked Up So Sexual Chords & Tabs

Faint Chords & Tabs

Version: 1 Type: Tab 0 ratings
1 star 2 stars 3 stars 4 stars 5 stars
comments

Worked Up So Sexual Tab

following chords are the synthesizer arrnaged for guitar, hold each one for a whole
note, listen to song for duration if u dont know how long it is

|----------|----------|----------|-----------|
|----------|----------|----------|-----------|
|----------|----------|----------|-----------|
|----------|----------|----------|-----------|
|-9--------|-5--------|-7--------|-12--------|
|-7--------|-3--------|-5--------|-10--------|

[ Tab from: http://www.guitartabs.cc/tabs/f/faint/worked_up_so_sexual_tab.html ]
|----------|----------|----------|-------|
|----------|----------|----------|-------|
|----------|----------|----------|-------|
|----------|----------|----------|-------|
|-4--------|-5--------|-7--------|-12----|
|-2--------|-3--------|-5--------|-10----|


This section is the chorusey type thing, again for guitar
|------------------|--------------|----------------|--------|
|------------------|--------------|----------------|--------|
|-11---------12----|--------11----|----------------|--------|
|--x--9--12---x----|-12--9---x----|-9--12--14------|-12--7--|
|--9--x---x--10----|--x--x---9----|-x---x---x------|--x--x--|
|-----7--10--------|-10--7--------|-7--10--12------|-10--5--|
Comments