Failed Effort - All These Days Chords & Tabs

 

All These Days Chords & Tabs

Failed Effort Chords & Tabs

Version: 1 Type: Tab 0 ratings
1 star 2 stars 3 stars 4 stars 5 stars
comments

All These Days Tab

   
--------------------------------------------------------------------------------        
                   Failed Effort - All These Days
--------------------------------------------------------------------------------
Riff 1 (Intro)
                                     x3
e--------------------------------------|e-------------------|
b--------------------------------------|b-------------------|
g-13-13-15-16-15-16-18-16-15-16-15-13--|g-13-13-15-16-15-11-|
d--------------------------------------|d-------------------|
a--------------------------------------|a-------------------|
E--------------------------------------|E-------------------|

Riff 2(Verse)

e----------------------------------------------------------------------------|
b----------------------------------------------------------------------------|
g----------------------------------------------------------------------------|
d----------------------------------------------------------------------------|
a-555555-55-7-9-101010101010-1010-9-7-555555-55-7-9-101010101010101010101010-|
E-333333-33-5-7-8-8-8-8-8-8--8-8--7-5-333333-33-5-7-8-8-8-8-8-8-8-8-8-8-8-8--|

Riff 3(chorus)
[ Tab from: http://www.guitartabs.cc/tabs/f/failed_effort/all_these_days_tab.html ]
e---------------------------------------------------------------------
b----------------------------------------------------------------------
g----------------------------------------------------------------------
d----------------------------------------------------------------------
a-555555-555555-101010101010-101010101010-121212121212-121212121212-101010101010
E-333333-333333-8-8-8-8-8-8--8-8-8-8-8-8--101010101010-101010101010-8-8-8-8-8-8

e------------|
b------------|
g------------|
d------------|
a-1010-9-7---|
E-8-8--7-5---|

Riff 4(Interlude)

e------------------------------------------------------------------------------
b------------------------------------------------------------------------------
g------------------------------------------------------------------------------
d-----------------5555555-7777777-----------------5555555-7777777-999999-555555
a-5555555-7777777-3333333-5555555-5555555-7777777-3333333-5555555-777777-333333
E-3333333-5555555-----------------3333333-5555555------------------------------
 pm......pm......pm......pm......pm......pm......pm......pm......

e-----------------------------------------------------------------------------
b-----------------------------------------------------------------------------
g-----------------------------------------------------------------------------
d-777777--------999999-555555-777777--------999999-555555-777777--------999999
a-555555-777777-777777-333333-555555-999999-777777-333333-555555-777777-777777
E--------555555----------------------777777----------------------555555-------

e-----------------------------|
b-----------------------------|
g-----------------------------|
d--------7-xx-7-xx-7-xx-7777--|
a-333333-5-xx-5-xx-5-xx-5555--|
E-----------------------------|

Riff 1 x1
Riff 2 x5
Riff 3 x2
Riff 2 x5
Riff 3 x2
Riff 2 x1
Riff 4 x1
Riff 3 x5

====
Comments