Factory 81 - Mankind Chords & Tabs

 

Mankind Chords & Tabs

Factory 81 Chords & Tabs

Version: 1 Type: Tab 0 ratings
1 star 2 stars 3 stars 4 stars 5 stars
comments

Mankind Tab

   
Factory 81 - Mankind
Submitted By: Schecter Man

Tabber: John Cukras
Email: riffreaper@yahoo.com

Tuning: C G C F A D

Intro:
D----------
A----------
F----------
C----------
G-------2--
C-2-323-2--
[ Tab from: http://www.guitartabs.cc/tabs/f/factory_81/mankind_tab.html ]
Riff 1:
D--------------------------------------------------
A--------------------------------------------------
F--------------------------------------------------
C-------------------------------------------5555---                                       ----------2^
G----7--5----7----5-----------0 (let ring)--3333-0-       (does this once after the 5 note-5-4-3-2----)
C-00------00---00----00-2323--0------------------0-(ring)                                   
pm..      ..   ..    ..

Riff 2:
D--------------------
A--------------------
F--------------------
C--------------------
G----2-3-5--3-5/3/5--
C-00-2-3-5--3-5/3/5--
pm..

Riff 3:
D------------------------------------
A------------------------------------
F------------------------------------
C---2323-----------------------------
G-0------0-----------2323-0----------
C-0------0--00000000------0-00000000-
pm          ........        ........
Comments